Cifra Club

Still Waiting

Sum 41

Cifrado: Versão 2 (guitarra y guitarra eléctrica)
tono: C
 int:

 E-C-G-B
 E-C-G-D 

 
Riff 1
Guitar 1

e|----------------------------------------|
b|----------------------------------------|
g|-12-11-12-12-11-12-10-11-12--14-12-11-7-|
d|----------------------------------------|
a|-10-9--10-10-9--10-10-9--10--12-10-9--5-|x2
e|----------------------------------------|

Riff 1 guitar 2

E-C-x4

Riff 2
guitar 1 e 2

e|------------------------------------------------------------------------------------------|
b|------------------------------------------------------------------------------------------|
g|------------------------------------------------------------------------------------------|
d|-2----------------------------2---------------------2-------------------------------------|
a|-2-2-2-2-2-2-2-8/7--8/7--5/7--2-2-2-2-2-2-2-5--5-5--2-2-2-2-2-2-2-8/7-8/7-5/7-5-5-5-5-5-5-|
e|-0-0-0-0-0-0-0-6/5--6/5--3/5--0-0-0-0-0-0-0-3--3-3--0-0-0-0-0-0-0-6/5-6/5-3/5-3-3-3-3-3-3-|

d|-----------------|
a|-4-4-4-4-4-2-2-2-|
e|-2-2-2-2-2-0-0-0-|x2

refrão
E-C-G-B x2


 riff 1 x1

 riff 2 x2

 refrão x2

 brigde
 guitar 1

 E-C-G-(D-B-D)x2

 E-C-x3 E-F  

 E-C-E-B-E-C-E-B-D
 E-C-E-B-D
 
 E-C-G-Bx2

 Guitar 2
 
e|--------------------------------------------------|
b|--------------------------------------------------|
g|-12-12-12-12-12-12-12-12--11-11-11-11-11-11-11-11-|
d|--------------------------------------------------|
a|-10-10-10-10-10-10-10-10--9--9--9--9--9--9--9--9--|
e|--------------------------------------------------|

e|--------------|---|---------------------|
b|--------------|---|---------------------|
g|--------------|---|---------------------|
d|---9----------|X3-|---------------------|
a|-7--10-9----9-|---|10-9-9-10-12-10-9-10-|
e|---------10---|---|---------------------|


  Refrão x2
Composición de Deryck Whibley / Greig Nori
Colaboración y revisión:
  • diego sousa
374 vistas
    • ½ Tono
    • A
    • Bb
    • B
    • C
    • Db
    • D
    • Eb
    • E
    • F
    • F#
    • G
    • Ab
  • Agregar a la lista

    0 comentarios

    Ver todos los comentarios

    ¿Lograste tocar?

    0 Tocaron 0 Aún no

    ¡Graba un video tocando Still Waiting y envíanoslo!

    00:00 / 00:00
    Outros vídeos desta música
    Repetir Calidad Automático
    Outros vídeos desta música
    00:00 / 00:00
    Automático
    OK