Cifra Club

Still Waiting

Sum 41

Tab de bajo: Versão 5
Tabbed By : Adrien Cochrane
e-mail: *

Tuning: Standard (EADG)

I play this song with my band.  This is sounds better and it is a lot easier.  I'm not 
sure but it sounds good enough for me and my band.

Intro (after guitar intro)
G|---------------------------------------------------------------|2x
D|---------------------------------------------------------------|
A|7-7-7-7-7-7-7-7-3-3-3-3-3-3-3-3-7-7-7-7-7-7-7-7-3-3-3-3-3-3----|
E|------------------------------------------------------------3-3|

Verse
G|---------------------------------------------------------------|
D|---------------------------------------------------------------|
A|7-7-7-7-7-7-7-7-3-3-3-3-3-3-3-3-7-7-7-7-7-7-7-7----------------|
E|------------------------------------------------3-3-3-3-3-3-3-3|

G|------------------------------------------------------------------|
D|------------------------------------------------------------------|
A|7-7-7-7-7-7-7-7-3-3-3-3-3-3-3-3-----------------------------------|
E|--------------------------------3-3-3-3-3-3-3-3-7-7-7-7-7-7-/10-10|

Chorus
G|---------------------------------------------------------------|2x
D|---------------------------------------------------------------|
A|7-7-7-7-7-7-7-7-3-3-3-3-3-3-3-3--------------------------------|
E|--------------------------------3-3-3-3-3-3-3-3-7-7-7-7-7-7-7-7|

Bridge
G|-------------------------------|2x
D|-------------------------------|
A|7-7-7-7-3-3-3-3----------------|
E|----------------3-3-3-3-7-7-7-7|
("I feel so alone. . .")
G|-------------------------------------------------------------------------|
D|-------------------------------------------------------------------------|
A|7-7-7-7-3-3-3-3-7-7-7-7-3-3-3-3-7-7-7-7-3-3-3-3-7-7-7-7-10-10-5-----5---7|
E|-------------------------------------------------------------------------|

G|-------------------------------|3x
D|----------------3-3-3-3-7-7-7-7|
A|7-7-7-7-3-3-3-3----------------|
E|-------------------------------|
("What have we done. . .)
G|-----------------------------------------------|
D|-----------------------------------------------|
A|7-7-7-7-3-3-3-3--------------------------------|
E|----------------3-3-3-3-7-7-7-7-/10-10-10-10-10|
Composición de Deryck Whibley / Greig Nori
1 vistas

0 comentarios

Ver todos los comentarios

¿Lograste tocar?

0 Tocaron 0 Aún no

¡Graba un video tocando Still Waiting y envíanoslo!

00:00 / 00:00
Outros vídeos desta música
Repetir Calidad Automático
Outros vídeos desta música
00:00 / 00:00
Automático
OK