Cifra Club

With Me

Sum 41

Tablatura: Principal
reproducciones 9.262
Tono: E
Intro 2x: E5  B5  C#m  A5

Riff 2x:

E|--------------0----------------0----------|
B|------------------------------------------|
G|--------4----------------4--------4-------|
D|--2--2-----2------------------------------|
A|-------------------2--2-----2-------------|
E|------------------------------------------|

E|--------------0----------------------------|
B|-------------------------------4--5--------|
G|--------4----------------4-----------4-----|
D|-------------------------------------------|
A|--4--4-----4-------0--0-----0--------------|
E|-------------------------------------------|

E5                     B5
    i don't want this moment
C#m           A5
      to ever end
E5                      B5
    where everything's nothing
    C#m A5
without you
E5                    B5
    i'd wait here forever just to
C#m        A5
to see you smile
           E5
cause it's true
     B5           C#m A5
i am nothing without you

           C#m
through it all
                A5
i've made my mistakes
              E5
i stumble and fall
                 B5
but i mean these words

              C#m
I want you to know
     A5                           E5
with everything i won't let this go
B5                           C#m
these words are my heart and soul
          A5                     E5
i'll hold on to this moment you know
      B5                         C#m
cause i'd bleed my heart out to show
       A5
that i won't let go

E|------------------------------------------------------|
B|------------------------------------------------------|
G|--9-9-9-9-9-------------------------------------------| 2x
D|--x-x-x-x-x-------------------------------------------|
A|--7-7-7-7-7-------------------------------------------|
E|------------------------------------------------------|

> A Intro é Executada novamente só que nesse padrão:

E|--------------------------------------------------------------|
B|--------------------------------------------------------------|
G|-9-9-9-9-9-xxxx-9-9-9-9-9-xxxx-9-9-9-9-9-xxxx-9-9-9-9-9-xxxx--| 2x
D|-9-9-9-9-9-xxxx-9-9-9-9-9-xxxx-9-9-9-9-9-xxxx-9-9-9-9-9-xxxx--|
A|-7-7-7-7-7-xxxx-x-x-x-x-x-xxxx-x-x-x-x-x-xxxx-0-0-0-0-0-xxxx--|
E|-0-0-0-0-0-xxxx-7-7-7-7-7-xxxx-9-9-9-9-9-xxxx-x-x-x-x-x-xxxx--|


E5                      B5
    thoughts read are spoken
C#m               A5
      forever and now
E5                 B5
    and pieces of memories
     C#m    A5
fall to the ground
E5                 B5
    i know that i didn't have so
C#m                 A5
   i won't let this go
           E5
cause it's true
     B5           C#m A5
i am nothing without you

          C#m (P.M)
all the streets
                A5 (P.M)
where i walked alone
                E5 (P.M)
with nowhere to go
                B5 (P.M)
i've come to an end

              C#m
I want you to know
     A5                           E5
with everything i won't let this go
B5                            C#m
these words are my heart and soul
          A5                     E5
i'll hold on to this moment you know
      B5                         C#m
cause i'd bleed my heart out to show
       A5
that i won't let go.

Bridge:

Guitar 1
E|-------------0----------------0-----------------------|
B|------------------------------------------------------|
G|-------4----------------4-----------------------------|
D|-2--2-----2-----2--2-------2--------------------------| 2x
A|------------------------------------------------------|
E|------------------------------------------------------|

Guitar 2
E|------------------------------------------------------|
B|------------------------------------------------------|
G|--9-9-9-9-9-------------------------------------------| 2x
D|--x-x-x-x-x-------------------------------------------|
A|--7-7-7-7-7-------------------------------------------|
E|------------------------------------------------------|


A5                   E5
    in front of your eyes
                   B5
it falls from the skies
                C#m
When you don't know
            B5          A5
What you're looking to find

                 E5
in front of your eyes
                   B5
it falls from the skies
              C#m
When you just never know
B5             A5
what you will find

Base solo:

(E5  B5  C#m  B5)
(A5  E5  B5  C#m  B5)
(E5  B5  C#m  A5)
(E5)

Solo:

E|--------------------------------------------------------------------|    Obs 3: O 1 na tab é na verdade 11
B|--------------------------------------------------------------------|             x                     x
G|--99999899999999999899991188888888881113131313131311131311----------| 4x          9                     9
D|--xxxxxxxxxxxxxxxxxxxxxxxxxxxxxxxxxxxxxxxxxxxxxxxxxxxxxxxx----------|
A|--77777677777777777677779966666666669911111111111199111199----------|
E|--------------------------------------------------------------------|

                     B5
    i don't want this moment
C#m           A5
      to ever end
E5                      B5
    where everything's nothing
    C#m A5
without you

              C#m
I want you to know
     A5                           E5
with everything i won't let this go
B5                            C#m
these words are my heart and soul
          A5                     E5
i'll hold on to this moment you know
      B5                         C#m
cause i'd bleed my heart out to show
       A5
that i won't let go

              C#m
I want you to know
     A5                           E5
with everything i won't let this go
B5                            C#m
these words are my heart and soul
          A5                     E5
i'll hold on to this moment you know
      B5                         C#m
cause i'd bleed my heart out to show
       A5         E5
that i won't let go...
Acordes para:
    Compositor: Sum 41Colaboración y revision:

    0 comentarios

      mostrar más comentarios

      ¿Conseguiste tocar?

      37tocaron0aún no

      ¡Graba un vídeo tocando With Me y envianoslo!

      00:00 / 00:00
      outros vídeos desta música
      repetirqualidadeautomática
      Outro vídeos desta música
        00:00 / 00:00
        automática
        OK