Cifra Club

Storywriter

Supercar

Cifrado: Principal (guitarra y guitarra eléctrica)
tono: A
this is da awesumm song during sum of da fight scenes in da anime Eureka 7.  bear wit me 
dis tab sucks for i have been playin guitar fo only 6 months.

intro.  electronic noises prior to da guitar

e----------------------------------------------------------------------------|
B----------------------------------------------------------------------------|
G----------------------------------------------------------------------------|
D------7-7-------------------------------------------------------------------|
A------7-7-------------------------------------------------------------------|
E------5-5(hit it in this rythem before distorted voice comes in)------------|

rythem guitar (u pretty much play this da whole song)
chorus/versus
e-------------------------|
B-------------------------|
G-------------------------|
D-7------6-----5-----4----|
A-7-(16x)6(16x)5(16x)4(16x)
E-5------4-----3-----2----

*

pre-chorus
e----------------------------------------------|
B----------------------------------------------|
G-(hit 997 & 775 rythem twice before moving on)
D-9-----7--------6-----5-----4-----2-----------|
A-9(16x)7(16x)---6(16x)5(16x)4(16x)2(16x)------|
E-7-----5--------4-----3-----2-----0-----------|

other guitar:  does same thing as rythem guitar in verses and pre-chorus but also plays 
small solo thing in the chorus.

slow solo bit while chorus is played
e-------12-10-9-10--------(repeat)---(then)----------9-12---|
B-10-12------------12-----(3times)-------------10-12--------|
G---(repeat top rythem 3 times before finishing with the next rhythem)
D---
A---
E---
order of song
intro
chorus
verses
pre-chorus
chorus
verses
pre-chorus
end
00:00 / 00:00
Otros videos de esta canción
Repetir
Otros videos de esta canción
Compositor no encontrado.
50 vistas
    • ½ Tono
    • A
    • Bb
    • B
    • C
    • Db
    • D
    • Eb
    • E
    • F
    • F#
    • G
    • Ab
  • Agregar a la lista

    0 comentarios

    Ver todos los comentarios

    ¿Lograste tocar?

    0 Tocaron 0 Aún no

    ¡Graba un video tocando Storywriter y envíanoslo!

    00:00 / 00:00
    OK