Cifra Club

Bolo de Casamento

Superguidis

Cifrado: Principal (guitarra y guitarra eléctrica)
tono: D
e|---------------|
B|---------------| 
G|---------------|
D|------3---6----| 2X
A|------3---6----|
E|------1---4----|

Reff
e|-------------------------------------------------------|
B|-------------------------------------------------------| 
G|------8----------8----------6--------------------------|
D|----6---6------6---6------6---6---8---10---8----6------| 4X
A|--8----------8----------8------------------------------|
E|-------------------------------------------------------|

e|----------------------|
B|----------------------|
G|-------------6--------|
D|---3----6----6--------| 4X
A|---3----6----4--------|
E|---1----4-------------|

Não espere seu bolo de casamento tão cedo
Não espere seu bolo de casamento tão cedo 

e|--------------------------------------------------|
B|--------------------------------------------------|
G|----5----8----10----------5-----8-----------------|
D|----5----8----10----8-----5-----8-----8-----6-----|
A|----3----6----8-----8-----3-----6-----8-----6-----|
E|--------------------6-----------------6-----4-----|

Ingratidão se paga esperando
Você ainda não viu nada
Do que está por viiiiirr


Riff
e|-------------------------------------------------------|
B|-------------------------------------------------------| 
G|------8----------8----------6--------------------------|
D|----6---6------6---6------6---6---8---10---8----6------| 4X
A|--8----------8----------8------------------------------|
E|-------------------------------------------------------|

e|------------------------|
B|------------------------|
G|-------------6----------|
D|---3----6----6----------| 4X
A|---3----6----4----------|
E|---1----4---------------|

Não espere que eu leve até o local de entrega
Não espere que eu leve até o local de entrega

e|----------------------------------------------------------------|
B|----------------------------------------------------------------|
G|----5----8----10----------5-----8-------------------------------|
D|----5----8----10----8-----5-----8-----8-----6---------6---8-----|
A|----3----6----8-----8-----3-----6-----8-----6---------6---8-----|
E|--------------------6-----------------6-----4---------4---6-----| 

O Transporte Coletivo
É Bastante eficiente Aquiiiii
Proxima parada por favoooor
Ao Menos se você deixar por aqui
Uma fatia desse Bolo de Casamento!!

O solo do fim eu não consegui fazer
depois eh soh repetir o Riff
00:00 / 00:00
Otros videos de esta canción
Repetir
Otros videos de esta canción
Composición de Andrio Maquenzi
Colaboración y revisión:
  • Rafael Sevaio
22 vistas
    • ½ Tono
    • A
    • Bb
    • B
    • C
    • Db
    • D
    • Eb
    • E
    • F
    • F#
    • G
    • Ab
  • Agregar a la lista

    0 comentarios

    Ver todos los comentarios

    ¿Lograste tocar?

    0 Tocaron 0 Aún no

    ¡Graba un video tocando Bolo de Casamento y envíanoslo!

    00:00 / 00:00
    OK