Cifra Club

O Banana

Superguidis

Cifrado: Principal (guitarra y guitarra eléctrica)
tono: F#
INTRO: C# F# B B C# F# B B D# B D# B

 (               2X                  )
   C#       F#       B                 D#     B          D#     B
e|-9-9-9-9--2-2-1-2--7-7-6-6-7-6-7-6-|------------------------------------------|
B|-9-9-9-9--2-2-2-2--7-7-7-7-7-7-7-7-|-7-7-7--4-4-4-4-4--7-7-7--4-4-4-4-4-------|
G|-----------------------------------|-8-8-8--6-4-4-4-6--8-8-8--6-4-4-4-6/11-10-|
D|-----------------------------------|------------------------------------------|
A|-----------------------------------|------------------------------------------|
E|-----------------------------------|------------------------------------------|

C#
  Por onde eu andava
                      F#
  Onde estava com a cabeça
                                              B7+
  Que não percebi a falta que me faz a tua presença
                     C#
  Que banana que eu sou...
                 F#
  Um completo bundão
                      
  Embora você diga que não
                        B7+
  Embora você diga que não 
             F C# F 
  Eu não acredito 
C#           F    C# F   
  Eu não acredito
C#      F#           B                              
  Agora todas as canções de amor fazem sentido
C#      F#           B           D# B D# B   
  Agora todas as canções de amor

PONTE: Db Gb B Db Gb B
  
             F C# F
  Eu não acredito
C#           F    C# F 
  Eu não acredito
C#      F#          B                        
  Agora todas as canções de amor fazem sentido
C#      F#          B
  Agora todas as canções de amor fazem sentido
C#      F#          B
  Agora todas as canções de amor fazem sentido
C#      F#          B
  Agora todas as canções de amor... 
     
  e|-------------------------------------1-|
  B|-7-7-7--4-4-4-4-4--7-7-7--4-4-4-4-4--2-|
  G|-8-8-8--6-4-4-4-6--8-8-8--6-4-4-4-6--3-|
  D|-------------------------------------3-|
  A|-------------------------------------1-|
  E|-------------------------------------1-|
00:00 / 00:00
Otros videos de esta canción
Repetir
Otros videos de esta canción
Compositor no encontrado.
Colaboración y revisión:
  • João Vidal
45 vistas
    • ½ Tono
    • A
    • Bb
    • B
    • C
    • Db
    • D
    • Eb
    • E
    • F
    • F#
    • G
    • Ab
  • Agregar a la lista

    0 comentarios

    Ver todos los comentarios
    00:00 / 00:00
    OK