Cifra Club

Someday Well Be Together

The Supremes

Cifrado: Principal (guitarra y guitarra eléctrica)
tono: Db
Tabbed by: M.G. Nealon

Tuning: Standard

plus it's fairly easy.
As this song is in C# I would suggest using a capo because the bar chords might cramp 
hands up. I always played this
song with three guitars, but just strumming the chords sounds nice as well. This is my 
tab so if there are any errors forgive me.


Guitar I just strums the chords.

Intro: C# F# F#m

C#       G#          F#
     Someday well be together

C#
Say, say, say it again

C#  G#          F#
Someday well be together

C#
Oh, yeah, oh yeah


Verse I:

C#
Youre far away

C#
From me my love

F#
And just as sure my, my baby

F#m
As there are stars above

F#m                               C#
I wanna say, I wanna say, I wanna say it


C#  G#          F#
Someday well be together

C#
Yes we will, yes we will

C#       G#                           F#
Say, someday (some sweet day) well be together

C#
I know, I know, I know, I know


Verse II:


C#
My love is yours, baby

C#
Oh, right from the start

F#
You, you, you posses my soul now honey

F#m
And I know, I know you own my heart

F#m         C#
And I wanna say it


C#  G#                           F#
Someday (Some sweet day) well be together

C#
Yes we will, yes we will

C#  G#                           F#
Someday (tell everybody now) well be together

C#
Yes we will, yes we will

Bridge:

F#
Long time ago

F#
My, my sweet thing

F#
I made a big mistake, honey

C#
I, say I said goodbye

C#7
Oh, oh

F#
baby, ever

F#
ever, ever, ever

F#
Ever since that day Now, now

C#                 Bbm
all I (all I wanna do)

Bbm                         C#
all i wanna do (all I wanna do)

G#           G#-Let ring
is cry, cry


Hey, hey, hey


Verse III:

C#
I long for you

C#
Every, every night

F#
Oh Just to kiss your sweet, sweet lips baby

F#m
Hold you ever, ever so tight

F#m         C#
And I wanna say it


C#  G#          F#
Someday well be together

C#
Yes we will, yes we will

C#  G#          F#
Someday well be together

C#
Yes we will, yes we will

repeat and fade

Tabs:

Intro/Verse

Guitar II

 C#
e|------6---------6--------6----------6--------------------------------------|
B|--6-9--9----6-9--9---6-9---9----6-9--9-------------------------------------|
G|---------------------------------------------------------------------------|
D|---------------------------------------------------------------------------|
A|---------------------------------------------------------------------------|
E|---------------------------------------------------------------------------|

  F#                              F#m
e|--------11------------11--------------12------------12---------------------|
B|--11-14---14----11-14----14-----11-14---14----11-14---14-------------------|
G|---------------------------------------------------------------------------|
D|---------------------------------------------------------------------------|
A|---------------------------------------------------------------------------|
E|---------------------------------------------------------------------------|

  C#          G#              F#                     C#
e|------6--------------------------------11---------------------6------------|
B|--6-9--9-------------4-----------11-14---14---------------6-9---9----------|
G|-----------------3-6--6----------------------------------------------------|
D|---------------------------------------------------------------------------|
A|---------------------------------------------------------------------------|
E|---------------------------------------------------------------------------|

 C#          G#              F#                     C#
e|------6--------------------------------11---------------------6------------|
B|--6-9--9-------------4-----------11-14---14---------------6-9---9----------|
G|-----------------3-6--6----------------------------------------------------|
D|---------------------------------------------------------------------------|
A|---------------------------------------------------------------------------|
E|---------------------------------------------------------------------------|


Guitar III

  C#
e|-9----------------------------9--------------------------------------------|
B|-9----------------------------9--------------------------------------------|
G|-10---------------------------10-------------------------------------------|
D|-11---------------------------11-------------------------------------------|
A|-11---------------------------11-------------------------------------------|
E|-9----------------------------9--------------------------------------------|

  F#                           F#m
e|-9----------------------------9--------------------------------------------|
B|-11---------------------------10-------------------------------------------|
G|-11---------------------------11-------------------------------------------|
D|-11---------------------------11-------------------------------------------|
A|-9----------------------------9--------------------------------------------|
E|-x----------------------------x--------------------------------------------|

   C#          G#              F#                     C#
e|-9--------9--4------------4--2----------------------9----------------------|
B|-9--------9--4------------4--2----------------------9----------------------|
G|-10-------10-5------------5--3----------------------10---------------------|
D|-11-------11-6------------6--4----------------------11---------------------|
A|-11-------11-6------------6--4----------------------11---------------------|
E|-9--------9--4------------4--2----------------------9----------------------|

   C#          G#              F#                     C#
e|-9--------9--4------------4--2----------------------9----------------------|
B|-9--------9--4------------4--2----------------------9----------------------|
G|-10-------10-5------------5--3----------------------10---------------------|
D|-11-------11-6------------6--4----------------------11---------------------|
A|-11-------11-6------------6--4----------------------11---------------------|
E|-9--------9--4------------4--2----------------------9----------------------|

Bridge:

Guitar II

  F#
e|------11-----------11-------------11-----------11--------------------------|
B|-11-14--14---11-14----14----11-14---14---11-14----14-----------------------|
G|---------------------------------------------------------------------------|
D|---------------------------------------------------------------------------|
A|---------------------------------------------------------------------------|
E|---------------------------------------------------------------------------|

  C#                                C#7
e|-----6---------6--------6---------------------6----------------------------|
B|-6-9--9----6-9--9---6-9---9---------------6-9--9---------------------------|
G|---------------------------------------------------------------------------|
D|---------------------------------------------------------------------------|
A|---------------------------------------------------------------------------|
E|---------------------------------------------------------------------------|

 F#
e|------11-----------11-------------11-----------11--------------------------|
B|-11-14--14---11-14----14----11-14---14---11-14----14-----------------------|
G|---------------------------------------------------------------------------|
D|---------------------------------------------------------------------------|
A|---------------------------------------------------------------------------|
E|---------------------------------------------------------------------------|

  C#          Bbm        C#             G#
e|----4-6-4----2-4-2-------4-6-4-4------4-4-4-4-4-4-4/9----------------------|
B|--6--------4-----------6---------------------------------------------------|
G|---------------------------------------------------------------------------|
D|---------------------------------------------------------------------------|
A|---------------------------------------------------------------------------|
E|---------------------------------------------------------------------------|

Guitar III    (note:x-after you play the notes immediately mute them.)

  F#
e|---------------------------------------------------------------------------|
B|-11x----11x----11x----11x----11x----11x----11x----11x----------------------|
G|-11x----11x----11x----11x----11x----11x----11x----11x----------------------|
D|---------------------------------------------------------------------------|
A|---------------------------------------------------------------------------|
E|---------------------------------------------------------------------------|

  C#                      C#7
e|-9x----9x----9x----9x----9x----9x----9x----9x------------------------------|
B|-9x----9x----9x----9x----9x----9x----9x----9x------------------------------|
G|---------------------------------------------------------------------------|
D|---------------------------------------------------------------------------|
A|---------------------------------------------------------------------------|
E|---------------------------------------------------------------------------|

F#
e|---------------------------------------------------------------------------|
B|-11x----11x----11x----11x----11x----11x----11x----11x----------------------|
G|-11x----11x----11x----11x----11x----11x----11x----11x----------------------|
D|---------------------------------------------------------------------------|
A|---------------------------------------------------------------------------|
E|---------------------------------------------------------------------------|

  C#       Bbm       C#      G#
e|-9x-------6x-------9x------4-4-4-4-4-4-4-4---------------------------------|
B|-9x-------7x-------9x------4-4-4-4-4-4-4-4---------------------------------|
G|---------------------------5-5-5-5-5-5-5-5--let ring-----------------------|
D|---------------------------6-6-6-6-6-6-6-6---------------------------------|
A|---------------------------6-6-6-6-6-6-6-6---------------------------------|
E|---------------------------4-4-4-4-4-4-4-4---------------------------------|

| /  slide up
| \  slide down
| h  hammer-on
| p  pull-off
| ~  vibrato
| +  harmonic
| x  Mute note
===============================================================================
00:00 / 00:00
Otros videos de esta canción
Repetir
Otros videos de esta canción
Composición de Harvey Fuqua / Jackey Beavers / Johnny Bristol
79 exhibiciones
    • ½ Tono
    • A
    • Bb
    • B
    • C
    • Db
    • D
    • Eb
    • E
    • F
    • F#
    • G
    • Ab
  • Agregar a la lista
    00:00 / 00:00
    OK