Cifra Club

Aprenda

Eu Não Amo Todo Dia

Suricato

Tablatura: Principal (guitarra)
tono: E
Riff Intro :
E|-------------------------|-------------------------|
B|-------------------------|-------------------------|
G|-------------------------|-------------------------|
D|-------------------------|-------------------------| 
A|4-4-6-7-6-4-6-4-4-4------|4-4-6-7-6-4-6-4-4-4------| 2x 
E|-------------------------|-------------------------|

E (p. m)
A cama, um berço, um mar
Um banco ou praça para quem quiser olhar (Riff Introdução)

E (p. m)
Na chuva de arroz, na tempestade solar
Inteiro ou devagar (Riff Introdução)

A                       E               B
Nada vem quando se espera colisão
A                       E
E eu não sei o que faria
C#5             B5        A5            B5      E (Riff Intro)
Mas decerto que estaria com você
Com você

Riff 2:
E|--------2------------|
b|2h4p---------2-------|
G|---------2h4---------|
D|---------------2-----|
A|---------------------|
E|---------------------|

E (p. m)
O chão a me espalhar por teus cabelos
E encurtar a nossa respiração   (Riff Introdução)
E (p. m)
A mão inteira cabe o que desejo
O céu, a estrela, tanta imaginação (Riff Introdução)

                 A                      E               B
Compassos seguem e eu já tenho a confissão
                    A                  E
É que eu não amo todo dia,
C#5             B5        A5            B5      E (Riff Intro)
Mas decerto que amaria com você
A       B      E (Riff Introdução)
Com você
A       B     C
Com você

Solo 2x:
E|-----------------|----------------|--------------|------------------------------|
B|-----------------|----------4h5~--|--7/9-7-5-4~--|--4-4-4-----------------------|
G|-3-3-3-3-4-4/6~--|--6-6-6-6-------|--------------|--------6-4/7-7-7-6-4~~-------|
D|-----------------|----------------|--------------|------------------------------|
A|-----------------|----------------|--------------|------------------------------|
E|-----------------|----------------|--------------|------------------------------|

                 A                      E               B
Compassos seguem e eu já tenho a confissão
                    A                  E
É que eu não amo todo dia,
        C#5             B5        A5            B5      E (Riff Intro)
Mas decerto que amaria com você
A       B      E (Riff Intro)
Com você
A       B      E (Riff Intro)
Com você
Composição de Rodrigo Suricato
Colaboración y revision:
  • Lucas Mulim
  • Lucas Teixeira
6 reproducciones
    • ½ Tono
    • A
    • Bb
    • B
    • C
    • Db
    • D
    • Eb
    • E
    • F
    • F#
    • G
    • Ab
  • Adicionar à lista

    0 comentarios

    Ver todos os comentários

    ¿Conseguiste tocar?

    1 Tocaram 0 Ainda não

    Grave um vídeo tocando Eu Não Amo Todo Dia e nos envie!

    00:00 / 00:00
    outros vídeos desta música
    repetir qualidade Automático
    Outros vídeos desta música
    00:00 / 00:00
    Automático
    OK