Cifra Club

Aprenda

Inseparáveis

Suricato

Tablatura: Principal (guitarra)
tono: A
  Intro: E
E|-0--0--0--0--0--0--0--0--0--0--0--0------|--0--0--0--0--0--0--0--0--0--0--0--|
B|-0--0--0--0--0--0--0--0--0--0--0--0------|--0--0--0--0--0--0--0--0--0--0--0--|
G|16-16-16-16-16-14-13-10-13-14/16-13~-----|/19-19-19-19-19-14-13-14-13-14/16~-|
D|-----------------------------------------|-----------------------------------|
A|-----------------------------------------|-----------------------------------|
E|-----------------------------------------|-----------------------------------|

                                                                                H.
E|-0--0--0--0--0--0--0--0--0--0--0--0------|--0--0--0--0--0--0--0--0--0--0--0----------|
B|-0--0--0--0--0--0--0--0--0--0--0--0------|--0--0--0--0--0--0--0--0--0--0--0--(12)----|
G|16-16-16-16-16-14-13-10-13-14/16-13~-----|/19-19-19-19-19-14-13-14-13-14/16~-(12)----|
D|-----------------------------------------|-------------------------------------------|
A|-----------------------------------------|-------------------------------------------|
E|-----------------------------------------|-------------------------------------------|                                                                   

E
Inseparáveis, qualquer movimento
podia jurar que ia ser assim
Dinamitando a barreira do tempo
Deixem falar o que querem de mim

D                 A
Tô à vontade de verdade
                             E
nem sempre que quero isso é assim
A
Minha vontade

A                                         E
Nem sempre é o correto o desejo que sai de mim
(Repete intro)

E
Pago pra ler esse teu pensamento
Todo cuidado é inútil sim
Pelo universo, entre o céu e o tempo
Um Big Bang aqui dentro de mim

D                 A
Tô à vontade de verdade
                            E
nem sempre que quero isso é assim
D
Minha vontade
       A                            B
nem sempre é correto o desejo que sai de mim
     A
Ooooohh
 B      F#    E
Aaaaaaaaaaahhh
  B     D     E
Oooouuooooooohhhh   

( D  E  A )
( E  Bm  A  E )
Composição de Diogo Gameiro / Rodrigo Suricato
Colaboración y revision:
  • Diego Santos
  • Lucas Teixeira
  • Dean Barker
23 reproducciones
    • ½ Tono
    • A
    • Bb
    • B
    • C
    • Db
    • D
    • Eb
    • E
    • F
    • F#
    • G
    • Ab
  • Adicionar à lista

    0 comentarios

    Ver todos os comentários

    ¿Conseguiste tocar?

    0 Tocaram 1 Ainda não

    Grave um vídeo tocando Inseparáveis e nos envie!

    00:00 / 00:00
    outros vídeos desta música
    repetir qualidade Automático
    Outros vídeos desta música
    00:00 / 00:00
    Automático
    OK