Cifra Club

Um Tanto

Suricato

Cifrado: Principal (guitarra y guitarra eléctrica)
tono: E
[Intro]  E  A

   E         A  B   E
E|-2/4-2-0---------2/4---------|
B|---------0-2-2/4-------------|
G|-----------------------------|
D|-----------------------------|
A|-----------------------------|
E|-----------------------------|

   E         A  B   E
E|-2/4-2-0---------------------|
B|---------0-2-2/4-4/5---------|
G|-----------------------------|
D|-----------------------------|
A|-----------------------------|
E|-----------------------------|

   E             A   B   C#m  F#  A  F#m B   E
E|-2/4--2--0-------------2/4--2--2/5--4--2--2/7-------|
B|------------0--2--2/4-------------------------------|
G|----------------------------------------------------|
D|----------------------------------------------------|
A|----------------------------------------------------|
E|----------------------------------------------------|

E              A
Se eu fosse como o Sol
B              E
Eu entraria na tua casa
E              A
Pra mostrar e aquecer
B                        E
O coração que não acredita em nada
E              A
Acho que ainda não chorei
B            C#m
Tudo o que ganhei
F#
Mas eu não durmo
A              F#m            B
Sem antes ter sonhado um tanto
         E
Um tanto

E                 A
Antes de virar senhor
B                 E
Queria o mundo viajar
E                         A
Conhecer histórias que farão de mim
B                      E
Melhor em qualquer lugar
E                A
Acho que ainda não ganhei
B           C#m
Tudo o que rezei
F#
Mas eu não durmo
A               F#m           B
Sem antes ter sonhado um tanto
        E
Um tanto

A
Descobri que tudo que aprendi
E
Foi errando feio
A
Tanto tempo esperei pra ser feliz
B A E/G# F#m E
Como agora mais de dentro que pra fora

E A
Give me love Give me love
B E
Give me Peace on earth
E A B E
Give me light Give me life
Composición de Rodrigo Suricato
Colaboración y revisión:
199 vistas
    • ½ Tono
    • A
    • Bb
    • B
    • C
    • Db
    • D
    • Eb
    • E
    • F
    • F#
    • G
    • Ab
  • Agregar a la lista

    0 comentarios

    Ver todos los comentarios

    ¿Lograste tocar?

    10 Tocaron 0 Aún no

    ¡Graba un video tocando Um Tanto y envíanoslo!

    00:00 / 00:00
    Outros vídeos desta música
    Repetir Calidad Automático
    Outros vídeos desta música
    00:00 / 00:00
    Automático
    OK