Cifra Club

Burning Heart

Survivor

Cifrado: Principal (guitarra y guitarra eléctrica)
Selo Cifra Club: esta cifra foi revisada para atender aos critérios oficiais da nossa Equipe de Qualidade.
tono: C
[Intro]

     Am     F         G      Am       Am    F         G
E|----------------|-3------5-------|----------------|----------------|
B|-5-----6--------|---3------------|-5-----6------8-|---8------------|
G|---5------------|-----4----------|---5------------|----------------|
D|-----7----------|----------------|-----7----------|----------------|
A|----------------|----------------|----------------|----------------|
E|----------------|----------------|----------------|----------------|

      Am    F         G      Am       Am    G         F
E|----------------|-3------5-------|----------------|----------------|
B|-5-----6--------|---3------------|-5-----8------6-|---6------------|
G|---5------------|-----4----------|---5------------|----------------|
D|-----7----------|----------------|-----7----------|----------------|
A|----------------|----------------|----------------|----------------|
E|----------------|----------------|----------------|----------------|

[Guitarra 2]

     Am     F         G      Am       Am    F         G
E|----------------|--------8--slide|-5--------------|-5--------------|
B|----------------|----------------|----------------|----------------|
G|----------------|----------------|----------------|----------------|
D|----------------|----------------|----------------|----------------|
A|----------------|----------------|----------------|----------------|
E|----------------|----------------|----------------|----------------|

      Am    F         G      Am       Am    G         F
E|----------------|--------8--slide|-5-----7-7----8-|-8--------------|
B|----------------|----------------|----------------|----------------|
G|----------------|----------------|----------------|----------------|
D|----------------|----------------|----------------|----------------|
A|----------------|----------------|----------------|----------------|
E|----------------|----------------|----------------|----------------|

Am
Two worlds collide rival nations
         C         G
It's a primitive clash
          C            F
Venting years of frustrations
Am
Bravely we hope Against all hope
         C            G
There is so much at stake
            C
Seems our freedom's up
F
Against the ropes
          G
Does the crowd understand?
      F
Is it east versus West
    G
Or man against man
    F                      G
Can any nation stand alone

[Refrão]

Am              F
In the burning Heart
G          Am
Just about to burst
Am                   F
There's a quest for answers
    G
An unquenchable thirst
Am              F
In the darkest night
G              C  G
Rising like a spire
Am              F
In the burning heart
     G             Am
The unmistakable fire
In the burning heart  à

       Am
In the warriors code there's no surrender
           C         G
Though his body says stop
    C              F
His spirit cries - never!
Am
Deep in our soul a quiet ember
         C            G
Know it's you against you
         C
It's the paradox
     F
That drives us on
       G
It's a battle of wills
       F
In the heat of attack
         G
It's the passion that kills
    F                G
The victory is yours alone

[Refrão]

Am              F
In the burning Heart
G          Am
Just about to burst
Am                   F
There's a quest for answers
    G
An unquenchable thirst
Am              F
In the darkest night
G              C  G
Rising like a spire
Am              F
In the burning heart
     G             Am
The unmistakable fire
In the burning heart
Otros videos de esta canción
    39.710 exhibiciones
      • ½ Tono
      • A
      • Bb
      • B
      • C
      • Db
      • D
      • Eb
      • E
      • F
      • F#
      • G
      • Ab
    • Agregar a la lista

    Afinación de cifrado

    Afinador online

      OK