Cifra Club

Sempre Sincero

Switch Stance

Cifrado: Principal (guitarra y guitarra eléctrica)
tono: D
Instrumento: 6 String Guitar



Afinação: Standard


INTRODUÇÃO
Guitarra 1 toca Riff 1 sozinha 4X, depois é acompanhada mais 8X da guitarra 2 tocando as notas 
D, A, E, G, na seqüência. Quando entra a bateria, a guitarra 2 faz o Riff 2 junto com a 
guitarra 1 fazendo o Riff 1. 

Riff 1 (repete várias vezes)
  D            A            Em            G            D
E|-------------10-----------10------------10-----------10------------||
B|----10--7h8------10--7h8-------10--7h8------10--7h8----------------||
G|7-7---7----7---7---7----7----7---7-----7---7---7---7---------------||
D|-------------------------------------------------------------------||
A|-------------------------------------------------------------------||
E|-------------------------------------------------------------------||

Riff 2 (repete várias vezes)
  D         A         Em      A          D
E|----------------------0---------------------||
B|----------------------0---------------------||
G|7--7-----------------------------------7--7-||
D|7--7--4-5-7--7--4-5-2---4-5-7--7--4-5--7--7-|| 
A|5--5--4-5-7--7--4-5-2---4-5-7--7--4-5--5--5-||
E|------2-3-5--5--2-3-0---2-3-5--5--2-3-------||



VERSO 1(abafando)
 D                       G                      A                    D
"Sempre quis tentar ser sincero, falar o que é certo e alguma coisa ser"

Logo depois do "...alguma coisa ser" guitarra 1 faz o Riff 3

Riff 3
  D
E|---------------------------------||
B|---------------------------------||
G|7--7/11-11---7--7/14-14--7-------||
D|---------------------------------||
A|5--5/9--9----5--5/12-12--5-------||
E|---------------------------------||

 D                       G                          A
"Sempre quis tentar ser esperto, mostrar que estou certo e sem ninguém 
     D
prá ver"



REFRÃO
          G             A                    D
"Um dia espero, sendo sincero, alguma coisa ser."

Guitarra 1 toca a base e guitarra 2 toca o Riff 4.

Riff 4
  G                   A                   D
E|10------------------10------------------10------------------10----||
B|---7---7--7--7-8p7-----7---7--7--7-8p7-----7---7--7--7-8p7--------||
G|-----7--7--7------7------7--7--7------7------7--7--7------7-------||
D|------------------------------------------------------------------||
A|------------------------------------------------------------------||
E|------------------------------------------------------------------||

          G                       A                      D
"Sendo sincero, falando o que é certo e sem ninguém prá ver"

Nessa parte do refrão, guitarra 1 entra com o riff 5 (guitarra 2 permanece com o riff 4)

Riff 5
  G               A               D
E|-------------------------------------------------------------------||
B|-------------------------------------------------------------------||
G|12-11---12-11---12-11---12-11---12-11-14-13-12-11------------------||
D|-----12------12------12------12------------------------------------||
A|-------------------------------------------------------------------||
E|-------------------------------------------------------------------||



VERSO 2 (abafando)
D                          G                      A
"Sempre quis amar como um cego, brincar como um velho e sem ninguém prá 
D
ver"

Logo depois do "...sem ninguém prá ver" guitarra 1 faz o Riff 3.

Riff 3
  D
E|---------------------------------||
B|---------------------------------||
G|7--7/11-11---7--7/14-14--7-------||
D|---------------------------------||
A|5--5/9--9----5--5/12-12--5-------||
E|---------------------------------||

D                         G                        A            
"Sempre quis andar sem mistério, cativar o que é belo e sem ninguém prá
A
ver"



REFRÃO
          G             A                    D
"Um dia espero, sendo sincero, alguma coisa ser."

Guitarra 1 toca a base e guitarra 2 toca o Riff 4.

Riff 4
  G                   A                   D
E|10------------------10------------------10------------------10----||
B|---7---7--7--7-8p7-----7---7--7--7-8p7-----7---7--7--7-8p7--------||
G|-----7--7--7------7------7--7--7------7------7--7--7------7-------||
D|------------------------------------------------------------------||
A|------------------------------------------------------------------||
E|------------------------------------------------------------------||

          G                       A                      D
"Sendo sincero, falando o que é certo e sem ninguém prá ver"

Nessa parte do refrão, guitarra 1 entra com o riff 5 (guitarra 2 permanece com o riff 4)

Riff 5
  G               A               D
E|-------------------------------------------------------------------||
B|-------------------------------------------------------------------||
G|12-11---12-11---12-11---12-11---12-11-14-13-12-11------------------||
D|-----12------12------12------12------------------------------------||
A|-------------------------------------------------------------------||
E|-------------------------------------------------------------------||

D                 Bm                  G                     A
"Sem ninguém prá ver, sem ninguém prá ver, sem ninguém prá ver, sem 
             D
ninguém prá ver"

Nessa hora, a guitarra 2 segue com o Riff 6 e a guitarra 1 faz a base.

Riff 6
  Bm                  G                  A                          D
E|------------------------------------------------------------------||
B|------------------------------------------------------------------||
G|12--12--12\11--11--11/12-12--12\11-11-11/12--12--12\11-11-11-11---||
D|------------------------------------------------------------------||
A|10--10--10\9---9---9/10--10--10\9--9--9/10---10--10\9--9--9--9----||
E|------------------------------------------------------------------||



PONTE
Nessa hora a guitarra 1 faz a base e a guitarra 2 faz o Riff 7.

Riff 7
  D                                      G                
E|-----------------------------------------------------------------------
B|-----11--11h12h14------11--11h12h14------11--11h12h14------11--11h12h14
G|12-12--12--------12--12--12--------12--12--12--------12--12--12--------
D|-----------------------------------------------------------------------
A|-----------------------------------------------------------------------
E|-----------------------------------------------------------------------
  A                                    Em                G
E|-----------------------------------------------------------------------
B|------11--11h12h14------11--11h12h14-------11--11h12h14------11--14p12p
G|12--12--12--------12--12--12---------12--12--12--------12--12--12------
D|-----------------------------------------------------------------------
A|-----------------------------------------------------------------------
E|-----------------------------------------------------------------------

  D
E|----||
B|11--||
G|--12||
D|----||
A|----||
E|----||

D                          G                    A               Em
"Sempre quis tentar, sempre quis falar, sempre quis mostrar, o que não, 
            G                   D
que não, que não, que não quer ver"

Nessa hora a guitarra 2 faz o Riff 8 (2X)

Riff 8
G                   A                   D               Em      G
E|---------------------------------------------------------------------||
B|--7--7--7--7-8p7-7--7--7--7--7-8p7-7--7--7--7--7-8p7--10-8-7--10-8-7-||
G|7---7--7--------7-----7--7--------7-----7--7--------7----------------||
D|---------------------------------------------------------------------||
A|---------------------------------------------------------------------||
E|---------------------------------------------------------------------||



REFRÃO
          G             A                    D
"Um dia espero, sendo sincero, alguma coisa ser."

Guitarra 1 toca a base e guitarra 2 toca o Riff 4.

Riff 4
  G                   A                   D
E|10------------------10------------------10------------------10----||
B|---7---7--7--7-8p7-----7---7--7--7-8p7-----7---7--7--7-8p7--------||
G|-----7--7--7------7------7--7--7------7------7--7--7------7-------||
D|------------------------------------------------------------------||
A|------------------------------------------------------------------||
E|------------------------------------------------------------------||

          G                       A                      D
"Sendo sincero, falando o que é certo e sem ninguém prá ver"

Nessa parte do refrão, guitarra 1 entra com o riff 5 (guitarra 2 permanece com o riff 4)

Riff 5
  G               A               D
E|-------------------------------------------------------------------||
B|-------------------------------------------------------------------||
G|12-11---12-11---12-11---12-11---12-11-14-13-12-11------------------||
D|-----12------12------12------12------------------------------------||
A|-------------------------------------------------------------------||
E|-------------------------------------------------------------------||

D         Bm           G            A            D
"Ma ma ma ma, ma ma ma ma, ma ma ma ma, ma ma ma ma".

Nessa hora a guitarra 2 faz o Riff 7

Riff 7
  D                                      Bm                
E|-----------------------------------------------------------------------
B|-----11--11h12h14------11--11h12h14------11--11h12h14------11--11h12h14
G|12-12--12--------12--12--12--------12--12--12--------12--12--12--------
D|-----------------------------------------------------------------------
A|-----------------------------------------------------------------------
E|-----------------------------------------------------------------------
  G                                    A                
E|-----------------------------------------------------------------------
B|------11--11h12h14------11--11h12h14-------11--11h12h14------11--11h12h
G|12--12--12--------12--12--12---------12--12--12--------12--12--12------
D|-----------------------------------------------------------------------
A|-----------------------------------------------------------------------
E|-----------------------------------------------------------------------

    D
E|--------------------------------------||
B|14------11--11h12h14------11--11h12h14||
G|--12--12--12--------12--12--12--------||
D|--------------------------------------||
A|--------------------------------------||
E|--------------------------------------||
00:00 / 00:00
Otros videos de esta canción
Repetir
Otros videos de esta canción
Composición de Maurílio
Colaboración y revisión:
  • Davi Magalhaes
36 vistas
    • ½ Tono
    • A
    • Bb
    • B
    • C
    • Db
    • D
    • Eb
    • E
    • F
    • F#
    • G
    • Ab
  • Agregar a la lista

    0 comentarios

    Ver todos los comentarios

    ¿Lograste tocar?

    0 Tocaron 0 Aún no

    ¡Graba un video tocando Sempre Sincero y envíanoslo!

    00:00 / 00:00
    OK