Cifra Club

A Tender Feeling - Theme

Sword Art Online

Cifrado: Principal (guitarra y guitarra eléctrica)
tono: A
Que tal tocar a música tema tão linda de Sword Art Online? A Tender Feeling ou "Lisbeth's Theme"


E|---------------------0-----
B|------------2--------------
G|---2-----------------------
D|---------------------------
A|---------------------------
E|---------------------------

E|--------------------------0
B|--2------------------------
G|-------------------2-------
D|----------2----------------
A|--0------------------------
E|---------------------------

E|--------------------------0
B|--0------------------------
G|---------------------------
D|--------------------6------
A|------------7--------------
E|--6------------------------

E|---------------------------
B|---------------------------
G|--2------------------------
D|----------------------4----
A|-------------4-------------
E|--4------------------------

E|----------------------0----
B|--------------3------------
G|--2------------------------
D|---------------------------
A|---------------------------
E|---------------------------

E|--2-----------------------5
B|-------------------3-------
G|------------2--------------
D|--0------------------------
A|---------------------------
E|---------------------------

E|--0------------------------
B|------------------2--------
G|------------2--------------
D|---------------------------
A|--4------------------------
E|---------------------------

E|---------------------------
B|--3------------------------
G|-----------------4---------
D|----------4----------------
A|--2------------------------
E|---------------------------

E|---------------------------
B|--3------2-------0---------
G|------------------------2--
D|---------------------------
A|--2--------------4---------
E|---------------------------

E|---------------------------
B|---------------------------
G|---------------------------
D|--4----------------0------2
A|--5-------0----------------
E|---------------------------

E|---------------------------
B|-------------------------0-
G|----------1-------2--------
D|--4------------------------
A|---------------------------
E|---------------------------

E|---------------------------
B|--0------------------------
G|---------------------------
D|------------------2--------
A|---------2-----------------
E|--2------------------------

E|-----------------------0---
B|--0------2------3----------
G|---------------------------
D|---------------------------
A|---------------------------
E|---------------------------

E|---------------------------
B|--3-----------------2------
G|--2-----------------2------
D|-----------2---------------
A|--0------------------------
E|---------------------------
Composición de Leonardo
Colaboración y revisión:
  • Leonardo Santos
1.981 vistas
    • ½ Tono
    • A
    • Bb
    • B
    • C
    • Db
    • D
    • Eb
    • E
    • F
    • F#
    • G
    • Ab
  • Agregar a la lista

    0 comentarios

    Ver todos los comentarios

    ¿Lograste tocar?

    4 Tocaron 1 Aún no

    ¡Graba un video tocando A Tender Feeling - Theme y envíanoslo!

    00:00 / 00:00
    Outros vídeos desta música
    Repetir Calidad Automático
    Outros vídeos desta música
    00:00 / 00:00
    Automático
    OK