Cifra Club

IGNITE (TV Size)

Sword Art Online

Cifrado: Principal (guitarra y guitarra eléctrica)
tono: G
Intro:

E|-------------------------------------------------------------------------------------------------------------------|
B|-----------------------------------------------------------------------------10------10---12--10-------------------|
G|--12--12--12--12--11--09--11-/-12--------------------12--11--11-------------------------------------12--11--09-/-12----|
D|------------------------------------10--10--10--10--------------12--10---12------12--------------------------------|
A|-------------------------------------------------------------------------------------------------------------------|
E|-------------------------------------------------------------------------------------------------------------------|

Verseo/Estrofa:
E|--------------|--------------------------------------------------------------------------------------------------------------|
B|--------------|--------------------------------------------------------------------------------------------------------------|
G|------12--11--|-------------------------------09-----------------------------------09--11----------------------------12--11--|
D|--09----------|--09-----------------------12-------------------09--10--09--10--12----------12--10--10--09--09----09----------|
A|--------------|-------12--10--12--10--12----------12--12---12----------------------------------------------------------------|
E|--------------|--------------------------------------------------------------------------------------------------------------|

E|----------------------------------------------------------------------------------------------------|
B|----------------------------------------------------------------------------------------------------|
G|-------------------------------09-------------------------------------------------------------------|
D|--09-----------------------12-------------------09--10--09--10--12--10--09--------------------------|
A|-------12--10--12--10--12----------12--12---12------------------------------12--10--09--10------10--|
E|--------------------------------------------------------------------------------------------12------|

Pre-Refrão/Pre-Estribillo:
E|-------------------------------------------------------------------|
B|-------------------------------------------------------------------|
G|-------------------------------------------------------------------|
D|--------------------------09--09---12--12--12--12--10--12--10--10--|
A|--12--12--12--12--10--12-------------------------------------------|
E|-------------------------------------------------------------------|

E|--------------------------------------------------------------------------|
B|--------------------------------------------------------------------------|
G|--------------------------------------------09--08--09--09-/-11--09-/-11--|
D|--10--10--09--10--09-----------12--11--11---------------------------------|
A|----------------------10---10---------------------------------------------|
E|--------------------------------------------------------------------------|

Refrão/Estribillo:
E|--------------------------------------------------------------------------------------------------------------------------------------------|
B|-----------------------------------------------------------------------------10------10---12--10--------------------------------------------|
G|--12--12--12--12--11--09--11-/-12-------------------12--11--09------------------------------------12--11--11-/-12---12--12--12--12--11--09--|
D|------------------------------------10--10--10--10--------------12--10---12------12---------------------------------------------------------|
A|--------------------------------------------------------------------------------------------------------------------------------------------|
E|--------------------------------------------------------------------------------------------------------------------------------------------|

E|-------------------------------------------------------------------------------------------|
B|-----------------------------------------------------10------10---12--10-------------------|
G|--11-/-12-------------------12--11--09------------------------------------12--11--11-/-12--|
D|------------10--10--10--10--------------12--10---12------12--------------------------------|
A|-------------------------------------------------------------------------------------------|
E|-------------------------------------------------------------------------------------------|

E|----------------------------------------------------------------------------|
B|--------------------------12--12---------------------------12--12-----------|
G|--09--12--12--12--11--09-----------09--12--12--12--11--09-----------11--12--|
D|----------------------------------------------------------------------------|
A|----------------------------------------------------------------------------|
E|----------------------------------------------------------------------------|

E|----------------------|
B|--------------12--09--|
G|--11------09----------|
D|----------------------|
A|----------------------|
E|----------------------|
Composición de Aoi Eir
Colaboración y revisión:
  • Edwin Vivas
  • Leonardo Santos
2.021 vistas
    • ½ Tono
    • A
    • Bb
    • B
    • C
    • Db
    • D
    • Eb
    • E
    • F
    • F#
    • G
    • Ab
  • Agregar a la lista

    0 comentarios

    Ver todos los comentarios

    ¿Lograste tocar?

    0 Tocaron 0 Aún no

    ¡Graba un video tocando IGNITE (TV Size) y envíanoslo!

    00:00 / 00:00
    Outros vídeos desta música
    Repetir Calidad Automático
    Outros vídeos desta música
    00:00 / 00:00
    Automático
    OK