Cifra Club

Innocence

Sword Art Online

Cifrado: Principal (guitarra y guitarra eléctrica)
tono: C#m
E|---------------------------------------------------------------------------|
B|------12--12--12--14--12---------------------------12----------------------|
G|--11----------------------14--13--13--14---13--13----------11--------------|
D|-------------------------------------------------------13------14--13--14--|
A|---------------------------------------------------------------------------|
E|---------------------------------------------------------------------------|

GUITAR 1:

E|----------------------------------------------------------------|
B|----------------------------------------------------------------|
G|----------------6--x--x---x--x--x--x---x--x--x--x---6--x--x--6--|
D|--7------9------6--x--x---x--x--x--x---x--x--x--x---6--x--x--6--|
A|--7------9------4--x--x---x--x--x--x---x--x--x--x---4--x--x--4--|
E|--5------7------------------------------------------------------|

GUITAR 2:

E|-------------------------------------------|
B|-------------------------------------------|
G|--13------13---11-----11--11----9--11--13--|
D|------11-----------9-----------------------|
A|-------------------------------------------|
E|-------------------------------------------|

GUITAR 1:

E|-----------------------------------------------------------------------------------------|-----------------------------------------------------------|
B|-----------------------------------------------------------------------------------------|-----------------------------------------------------------|
G|--------------------------------------------------------------------6--x--x--6--x--x--6--|----------------------------------------------6------6--6--|
D|--7--x--x--7--x--x--7---9--x--x--9--x--x--9---6--x--x--6--x--x--6---6--x--x--6--x--x--6--|--7--x--x--7--x--x--7---9--x--x--9--x--x--9---6------6--6--|
A|--7--x--x--7--x--x--7---9--x--x--9--x--x--9---6--x--x--6--x--x--6---4--x--x--4--x--x--4--|--7--x--x--7--x--x--7---9--x--x--9--x--x--9---4------4--4--|
E|--5--x--x--5--x--x--5---7--x--x--7--x--x--7---4--x--x--4--x--x--4------------------------|--5--x--x--5--x--x--5---7--x--x--7--x--x--7----------------|

GUITAR 2:

E|--------12--11-------------------------------------|------------------------------------------------|
B|--12------------12--10--------12-------------------|-----------------7-h-8-h-9--12-h-13-14--14--14--|
G|------------------------13--------11--9----11--13--|--11--9-----------------------------------------|
D|---------------------------------------------------|---------13--11---------------------------------|
A|---------------------------------------------------|------------------------------------------------|
E|---------------------------------------------------|------------------------------------------------|


Verse/Estrofa:

GUITAR 2:

E|------------------------------------------|
B|------------------------------------------|
G|--------------------11--13----------------|
D|--14----14--13--14----------------13--14--|
A|------------------------------14----------|
E|------------------------------------------|

GUITAR 1:

E|------------------------------|
B|------------------------------|
G|------------------------------|
D|--x--x--x--x---7-----9----10--|
A|--x--x--x--x---7-----9----10--|
E|--x--x--x--x---5-----7----8---|

GUITAR 2:

E|--------------------------------------------|------------------------------------------|
B|--------------------------------------------|------------------------------------------|
G|----------------------------13--14--13--11--|--------------------11--13----------------|
D|--14--13--14----14--13--14------------------|--14----14--13--14----------------13--14--|
A|--------------------------------------------|------------------------------14----------|
E|--------------------------------------------|------------------------------------------|

GUITAR 1:

E|------------------------------|
B|------------------------------|
G|------------------------------|
D|--x--x--x--x---7-----9----10--|
A|--x--x--x--x---7-----9----10--|
E|--x--x--x--x---5-----7----8---|

GUITAR 2

E|--------------------------------------------|
B|------------------------------------12------|
G|----------------------------13--11------13--|
D|--14--13--14----14--13--14------------------|
A|--------------------------------------------|
E|--------------------------------------------|


Pre-Chorus/Pre-Estribillo:

GUITAR 1:

E|-----------------------------|-------------------------------------|
B|-----------------------------|-------------------------------------|
G|--9--9---9--9---9--9---9--9--|--11--11---11--11---11--11---11--11--|
D|-----------------------------|-------------------------------------|
A|--7--7---7--7---7--7---7--7--|--9---9----9---9----9---9----9---9---|
E|-----------------------------|-------------------------------------|

GUITAR 2:

E|-------------------------------------------|-------------------------------------------|
B|-------------------------------------------|-------------------------------------------|
G|-------------------------------------------|-------------------------------------------|
D|--9--11--11--11--9--11--11--11--9--14--14--|--9--11--11--11--9--11--11--11--9--14--14--|
A|-------------------------------------------|-------------------------------------------|
E|-------------------------------------------|-------------------------------------------|

GUITAR 1:

E|-------------------------------------|---------------------------|
B|-------------------------------------|---------------------------|
G|--13--13---13--13---13--13---13--13--|--14------16--16---18--18--|
D|-------------------------------------|---------------------------|
A|--11--11---11--11---11--11---11--11--|--12------14--14---16--16--|
E|-------------------------------------|---------------------------|

GUITAR 2:

E|---------------------------------------------------|
B|---------------------------------------------------|
G|--9--11--11--11--9--11--9--11--9---13--14--13--11--|
D|---------------------------------------------------|
A|---------------------------------------------------|
E|---------------------------------------------------|


Chorus/Estribillo:

GUITAR 1:

E|--------------------------|-------------------|
B|--------------------------|-------------------|
G|-----------------------6--|----------------6--|
D|--7------9------6------6--|--7------9------6--|
A|--7------9------6------4--|--7------9------4--|
E|--5------7------4---------|--5------7---------|

GUITAR 2:

E|---------------------------------------------------------------------------|
B|------12--12--12--14--12---------------------------12----------------------|
G|--11----------------------14--13--13--14---13--13----------11--------------|
D|-------------------------------------------------------13------14--13--14--|
A|---------------------------------------------------------------------------|
E|---------------------------------------------------------------------------|

GUITAR 1:

E|--------------------------|
B|--------------------------|
G|-----------------------6--|
D|--7------9------6------6--|
A|--7------9------6------4--|
E|--5------7------4---------|

GUITAR 2:

E|-----------------------------------------------------------14--13--11--13--|
B|------12--12--12--14--12-------------------12--12--12----------------------|
G|--11----------------------14--13--13--14---------------13------------------|
D|---------------------------------------------------------------------------|
A|---------------------------------------------------------------------------|
E|---------------------------------------------------------------------------|

GUITAR 1:

E|------------|
B|------------|
G|------------|
D|--7------9--|
A|--7------9--|
E|--5------7--|

GUITAR 2:

E|------------------------------------------------------------------------------|
B|------------------------------------------------------------------------------|
G|------11--11--11--11--13--14--13--13--13--13--11---------11--11--11--9--8--9--|
D|--11--------------------------------------------------9-----------------------|
A|------------------------------------------------------------------------------|
E|------------------------------------------------------------------------------|

GUITAR 1:

E|--------------------------------------|
B|--------------------------------------|
G|--x--x--6--x--x--6--x--x--6--x--x--6--|
D|--x--x--6--x--x--6--x--x--6--x--x--6--|
A|--x--x--4--x--x--4--x--x--4--x--x--4--|
E|--------------------------------------|

GUITAR 2:

E|-----------------------------------------------|
B|-----------------------------------4--5--4-----|
G|-----------4--6--4-----4--6--4--6-----------6--|
D|--6--4--6-----------6--------------------------|
A|-----------------------------------------------|
E|-----------------------------------------------|

GUITAR 1:

E|-------------------------------------------------------------|
B|-------------------------------------------------------------|
G|-------------------------------------------------------------|
D|--x--x--7--x--x--7--x--x--7--x--x--7---x--x--9--x--x--9---9--|
A|--x--x--7--x--x--7--x--x--7--x--x--7---x--x--9--x--x--9---9--|
E|--x--x--5--x--x--5--x--x--5--x--x--5---x--x--7--x--x--7---7--|

GUITAR 2:

E|--------------------------------------------------------------------------|
B|--------------------------------------------------------------------------|
G|------11--11--11--11--13--14--13--13--13--11---------11--11--11--9--8--9--|
D|--11----------------------------------------------9-----------------------|
A|--------------------------------------------------------------------------|
E|--------------------------------------------------------------------------|


Outro:

GUITAR 1:

E|----------------------|
B|----------------------|
G|-------------------6--|
D|--7------9----6----6--|
A|--7------9----6----4--|
E|--5------7----4-------|

GUITAR 2:

E|------------------------------------9--|
B|--9-------9--12--10--9----------12-----|
G|------------------------11--9----------|
D|-----11--------------------------------|
A|---------------------------------------|
E|---------------------------------------|

Composición de Eir Aoi
Colaboración y revisión:
  • Tomas Martins
1.840 vistas
    • ½ Tono
    • Am
    • Bbm
    • Bm
    • Cm
    • C#m
    • Dm
    • Ebm
    • Em
    • Fm
    • F#m
    • Gm
    • G#m
  • Agregar a la lista

    0 comentarios

    Ver todos los comentarios

    ¿Lograste tocar?

    2 Tocaron 0 Aún no

    ¡Graba un video tocando Innocence y envíanoslo!

    00:00 / 00:00
    Outros vídeos desta música
    Repetir Calidad Automático
    Outros vídeos desta música
    00:00 / 00:00
    Automático
    OK