Cifra Club

Overfly (Ed - 2)

Sword Art Online

Cifrado: Principal (guitarra y guitarra eléctrica)
tono: G
Intro:

GUITAR 1:

E|----------------------------------------------------------|
B|----------------------------------------------------------|
G|------------------------------(6)--x--x--x---x--x--x--x---|
D|--(3)--x--x--x---x--x--x--x---(6)--x--x--x---x--x--x--x---|
A|--(3)--x--x--x---x--x--x--x---(4)--x--x--x---x--x--x--x---|
E|--(1)--x--x--x---x--x--x--x-------------------------------|

-|----------------------------------------------------------|
-|----------------------------------------------------------|
-|--(8)--x--x--x---x--x--x--x---(13)--x--x--x---x--x--x--x--|
-|--(8)--x--x--x---x--x--x--x---(11)--x--x--x---x--x--x--x--|
-|--(8)--x--x--x---x--x--x--x---(11)--x--x--x---x--x--x--x--|
-|--(6)--x--x--x---x--x--x--x---(11)--x--x--x---x--x--x--x--|
-|----------------------------------------------------------|

GUITAR 2:

E|--------------------------------------------------------------|
B|--------------------------------------------------13--14--13--|
G|--13--12--13----13--12--15----13--12--13--15------------------|
D|----------------------------------------------13--------------|
A|--------------------------------------------------------------|
E|--------------------------------------------------------------|

GUITAR 1:

E|---------------------------------------------------------|
B|---------------------------------------------------------|
G|--(5)--x--x--x---x--x--x--x---(6)--x--x--x---x--x--x--x--|
D|--(5)--x--x--x---x--x--x--x---(6)--x--x--x---x--x--x--x--|
A|--(3)--x--x--x---x--x--x--x---(4)--x--x--x---x--x--x--x--|
E|---------------------------------------------------------|

-|-----------------|
-|-----------------|
-|--10--10------8--|
-|--10--10------8--|
-|--8---8-------6--|
-|-----------------|

GUITAR 2:

E|------11--11--------11--11----------------------------------------|
B|------------------------------------------13----------------------|
G|--13------------13------------13--12--13------15--13--12--13--13--|
D|------------------------------------------------------------------|
A|------------------------------------------------------------------|
E|------------------------------------------------------------------|

GUITAR 1:

E|-----11-----------------------11----------9--8------|
B|--9------9--8---8--9-------9------9--11---------9---|
G|----------------------8-----------------------------|
D|----------------------------------------------------|
A|----------------------------------------------------|
E|----------------------------------------------------|

-|-----11-----------------------------------------11--|
-|--9------9--8---8--9-------9--8--9--11---9--11------|
-|----------------------8-----------------------------|
-|----------------------------------------------------|
-|----------------------------------------------------|
-|----------------------------------------------------|

Verso:

GUITAR 1:

E|----------------------------------------------------------|
B|----------------------------------------------------------|
G|--(5)--x--x--x---x--x--x--x---(5)--x--x--x---x--x--x--x---|
D|--(5)--x--x--x---x--x--x--x---(5)--x--x--x---x--x--x--x---|
A|--(3)--x--x--x---x--x--x--x---(3)--x--x--x---x--x--x--x---|
E|----------------------------------------------------------|

-|----------------------------------------------------------|
-|----------------------------------------------------------|
-|--(6)--x--x--x---x--x--x--x---(6)--x--x--x---x--x--x--x---|
-|--(6)--x--x--x---x--x--x--x---(6)--x--x--x---x--x--x--x---|
-|--(4)--x--x--x---x--x--x--x---(4)--x--x--x---x--x--x--x---|
-|----------------------------------------------------------|

GUITAR 2:

E|-----------------------------------------|
B|-----------------------------------------|
G|-----------------------------------------|
D|--10--10--10--10--10--10--11--10--8------|
A|-------------------------------------11--|
E|-----------------------------------------|

-|-----------------------------------------|
-|-----------------------------------------|
-|-----------------------------------------|
-|--10--10--10--10--10--10--11--10--8------|
-|-------------------------------------11--|
-|-----------------------------------------|

GUITAR 1:

E|----------------------------------------------------------|
B|----------------------------------------------------------|
G|--(10)--x--x--x---x--x--x--x---(8)--x--x--x---x--x--x--x--|
D|--(10)--x--x--x---x--x--x--x---(8)--x--x--x---x--x--x--x--|
A|--(8)---x--x--x---x--x--x--x---(6)--x--x--x---x--x--x--x--|
E|----------------------------------------------------------|
-|----------------------------------------------------------|
-|----------------------------------------------------------|
-|--(6)--x--x--x---x--x--x--x---(6)--x--x--x---x--x--x--x---|
-|--(6)--x--x--x---x--x--x--x---(6)--x--x--x---x--x--x--x---|
-|--(4)--x--x--x---x--x--x--x---(4)--x--x--x---x--x--x--x---|
-|----------------------------------------------------------|


GUITAR 2:

E|----------------------------------------|
B|----------------------------------------|
G|----------------------8-h-10--8---------|
D|--10--10--10--10--10-------------10--8--|
A|----------------------------------------|
E|----------------------------------------|

-|----------------------------------------|
-|----------------------------------------|
-|----------------------------------------|
-|------8----------------10--8------8-----|
-|--11-----11--11----11---------11--------|
-|----------------------------------------|


Pré-Refrão:

GUITAR 1:

E|-----------------------------------------------------|
B|-----------------------------------------------------|
G|--3--x--x---3--x--x--x--x---3--x--x---3--x--x--x--x--|
D|--3--x--x---3--x--x--x--x---3--x--x---3--x--x--x--x--|
A|--1--x--x---1--x--x--x--x---1--x--x---1--x--x--x--x--|
E|-----------------------------------------------------|

-|-----------------------------------------------------|
-|-----------------------------------------------------|
-|--5--x--x---5--x--x--x--x---5--x--x---5--x--x--x--x--|
-|--5--x--x---5--x--x--x--x---5--x--x---5--x--x--x--x--|
-|--3--x--x---3--x--x--x--x---3--x--x---3--x--x--x--x--|
-|-----------------------------------------------------|

GUITAR 2:

E|----------------------------------------|
B|----------------------------------------|
G|--8--8--8--8--8--8---8--10--8------8----|
D|-------------------------------10-------|
A|----------------------------------------|
E|----------------------------------------|

-|----------------------------------------|
-|----------------------------------------|
-|--8--8--8--8--8--8---8--10---12--10--8--|
-|----------------------------------------|
-|----------------------------------------|
-|----------------------------------------|

GUITAR 1:

E|-----------------------------------------------------|
B|-----------------------------------------------------|
G|--6--x--x---6--x--x--x--x---6--x--x---6--x--x--x--x--|
D|--6--x--x---6--x--x--x--x---6--x--x---6--x--x--x--x--|
A|--4--x--x---4--x--x--x--x---4--x--x---4--x--x--x--x--|
E|-----------------------------------------------------|

-|---------------------------------|
-|---------------------------------|
-|--8---8--8--8---8--8--8---8---8--|
-|--8---8--8--8---8--8--8---8---8--|
-|--6---6--6--6---6--6--6---6---6--|
-|---------------------------------|

GUITAR 2:

E|--------------------------------------|
B|--------------------------------------|
G|--8--8--8--8--8--8---8--10--8------8--|
D|-------------------------------10-----|
A|--------------------------------------|
E|--------------------------------------|

-|-------------------------------------|
-|-------------------------------------|
-|--8--10---8--8----8--10--8--10---12--|
-|-------------------------------------|
-|-------------------------------------|
-|-------------------------------------|


Refão:

GUITAR 1:

E|---------------------------|--------------------------|
B|---------------------------|--------------------------|
G|---------6------8------13--|--5------6------8---------|
D|--3------6------8------13--|--5------6------8------6--|
A|--3------4------6------11--|--3------4------6------6--|
E|--1------------------------|-----------------------4--|

GUITAR 2:

E|--------------------------------------------------------------|
B|--------------------------------------------------13--14--13--|
G|--13--12--13----13--12--15----13--12--13--15------------------|
D|----------------------------------------------13--------------|
A|--------------------------------------------------------------|
E|--------------------------------------------------------------|

-|---------------------------------------------------------------------------|
-|----------------------------------------------------------13---------------|
-|--13--13--12--13----13--13--12--15----13--12--13--15----------15---12--13--|
-|------------------------------------------------------13-------------------|
-|---------------------------------------------------------------------------|
-|---------------------------------------------------------------------------|

GUITAR 1:

E|---------------------------|--------------------------------|
B|---------------------------|--------------------------------|
G|--5------6------8------13--|--5------6------10--10---8---6--|
D|--5------6------8------13--|--5------6------10--10---8---6--|
A|--3------4------6------11--|--3------4------8---8----6---4--|
E|---------------------------|--------------------------------|

GUITAR 2:

E|------------------------------------------------------------------|
B|------------------------------------------------------13--14--13--|
G|--13--12--13----13--13--12--15----13--12--13--15------------------|
D|--------------------------------------------------13--------------|
A|------------------------------------------------------------------|
E|------------------------------------------------------------------|

-|------11--11--------11--11----------------------------------------|
-|------------------------------------------13----------------------|
-|--13------------13------------13--12--13------15--13--12--13--13--|
-|------------------------------------------------------------------|
-|------------------------------------------------------------------|
-|------------------------------------------------------------------|
Composición de Haruna Luna
Colaboración y revisión:
  • Ramon Oliveira
1.661 vistas
    • ½ Tono
    • A
    • Bb
    • B
    • C
    • Db
    • D
    • Eb
    • E
    • F
    • F#
    • G
    • Ab
  • Agregar a la lista

    0 comentarios

    Ver todos los comentarios

    ¿Lograste tocar?

    2 Tocaron 1 Aún no

    ¡Graba un video tocando Overfly (Ed - 2) y envíanoslo!

    00:00 / 00:00
    Outros vídeos desta música
    Repetir Calidad Automático
    Outros vídeos desta música
    00:00 / 00:00
    Automático
    OK