Cifra Club

Aprenda

Aerials

System Of a Down

Tablatura: Principal (guitarra)
Tom: F
Afinação: C G C F A D

[Intro]

Riff 1
E|---------------------------------------------------|
B|---------------------------------------------------|
G|---------------------------------------------------|
D|-----0-----0-----0-----0-----0-------0-----0-----0-|
A|---0-----0-----0-----0-----0-------0-----0-----0---|
E|-3-----2-----0-----0-----0-----0-5-----3-----2-----|

E|---------------------------------------------------|
B|---------------------------------------------------|
G|---------------------------------------------------|
D|-----0-----0-------0-----0-----0-----0---0---------|
A|---0-----0-------0-----0-----0-----0---------0-----|
E|-2-----2-----2-3-----5-----7-----8-----7---5-------|

E|---------------------------------------------------|
B|---------------------------------------------------|
G|---------------------------------------------------|
D|-----0-----0-----0-----0-----0---------------------|
A|---0-----0-----0-----0-----0-----------------------|
E|-3-----2-----0-----0-----0-----0-------------------|

Riff 2
E|---------------------------------------------------|
B|---------------------------------------------------|
G|---------------------------------------------------|
D|------0------0-----0-----0-----0--------0------0---|
A|----0------0-----0-----0-----0--------0------0-----|
E|-12-----10-----7-----7-----7-----7-14-----10-------|

E|---------------------------------------------------|
B|---------------------------------------------------|
G|---------------------------------------------------|
D|-----0-----0-----0--------0------0------0----------|
A|---0-----0-----0--------0------0------0------------|
E|-7-----7-----7-----7-12-----14-----15--------------|

E|---------------------------------------------------|
B|---------------------------------------------------|
G|---------------------------------------------------|
D|---------------------------------------------------|
A|-----0------0------0------0------0-----0--0--0--0--|
E|-17-----15-----14-----12-----10-----12----12-12-12-|

E|---------------------------------------------------|
B|---------------------------------------------------|
G|---------------------------------------------------|
D|---------------------------------------------------|
A|-0--0--0--0--0-------------------------------------|
E|-12-12-12-12-12------------------------------------|

[Primeira Parte]

 Bb5
Life is a waterfall

We're one in the river
                         (Riff 1)
And one again after the fall

  Bb5
Swimming through the void

We hear the word
                                  (Riff 1)
We lose ourselves, but we find it all

 Bb5
Cause we are the ones that wanna play

Always wanna go
                      (Riff 1)
But you never wanna stay

 Bb5
We are the ones that wanna choose

Always wanna play

But you never wanna lose

E|--------------------------------------------------|
B|--------------------------------------------------|
G|--------------------------------------------------|
D|-8--8--8--8-8---8--8-8--8--8--8-8---8--8----------|
A|-8--8--8--8-8---8--8-8--8--8--8-8---8--8----------|
E|-8--8--8--8-8---8--8-8--8--8--8-8---8--8----------|

Riff 1
E|--------------------------------------------------|
B|--------------------------------------------------|
G|---------12~~---------10~~---------9~~---------7~~|
D|---------x------------x------------x-----------x--|
A|---------10~~---------8~~----------7~~---------5~~|
E|-0-0-0-0------0-0-0-0------0-0-0-0-----0-0-0-0----|

[Refrão]

E|---------------------------------------------------|
B|---------------------------------------------------|
G|---------------------------------------------------|
D|-----0-----0-----0-----0-----0-------0-----0-----0-|
A|---0-----0-----0-----0-----0-------0-----0-----0---|
E|-3-----2-----0-----0-----0-----0-5-----3-----2-----|

E|---------------------------------------------------|
B|---------------------------------------------------|
G|---------------------------------------------------|
D|-----0-----0-------0-----0-----0-----0---0---0-----|
A|---0-----0-------0-----0-----0-----0---------------|
E|-2-----2-----2-3-----5-----7-----8-----7---5-------|

E|---------------------------------------------------|
B|---------------------------------------------------|
G|---------------------------------------------------|
D|-----0-----0-----0-----0-----0---------------------|
A|---0-----0-----0-----0-----0-----------------------|
E|-3-----2-----0-----0-----0-----0-------------------|

Aerials, in the sky
When you lose small mind
You free your life

[Segunda Parte]

 Bb5
Life is a waterfall

We drink from the river
                                 (Riff 1)
Then we turn around, put up our walls

  Bb5
Swimming through the void

We hear the word

We loose ourselves
               (Riff 1)
But we find it all

 Bb5
Cause we are the ones that wanna play

Always wanna go
                      (Riff 1)
But you never wanna stay

Bb5
We are the ones that wanna choose

Always wanna play
                     (Riff 2)
But you never wanna lose

E|--------------------------------------------------|
B|--------------------------------------------------|
G|--------------------------------------------------|
D|-8--8--8--8-8---8--8-8--8--8--8-8---8--8----------|
A|-8--8--8--8-8---8--8-8--8--8--8-8---8--8----------|
E|-8--8--8--8-8---8--8-8--8--8--8-8---8--8----------|

Riff 1:
E|--------------------------------------------------|
B|--------------------------------------------------|
G|---------12~~---------10~~---------9~~---------7~~|
D|---------x------------x------------x-----------x--|
A|---------10~~---------8~~----------7~~---------5~~|
E|-0-0-0-0------0-0-0-0------0-0-0-0-----0-0-0-0----|

Riff 2:
                  P.M . . . . . . .
E|--------------------------------------------------|
B|--------------------------------------------------|
G|--------------------------------------------------|
D|-7-7-7-7-7-7-7--8-7-8-7-8-7-8-7-8-----------------|
A|-7-7-7-7-7-7-7--8-7-8-7-8-7-8-7-8-----------------|
E|-7-7-7-7-7-7-7--8-7-8-7-8-7-8-7-8-----------------|

[Segundo Refrão]

E|---------------------------------------------------|
B|---------------------------------------------------|
G|---------------------------------------------------|
D|-3--2--0----5--3--2----3--5--7--8--7-5--3--2--0----|
A|-3--2--0----5--3--2----3--5--7--8--7-5--3--2--0----|
E|-3--2--0----5--3--2----3--5--7--8--7-5--3--2--0----|

Aerials, in the sky
When you lose small mind
You free your life
Aerials, so up high
When you free your eyes
Eternal prize

E|---------------------------------------------------|
B|---------------------------------------------------|
G|---------------------------------------------------|
D|-----0-----0-----0-----0-----0-------0-----0-----0-|
A|---0-----0-----0-----0-----0-------0-----0-----0---|
E|-3-----2-----0-----0-----0-----0-5-----3-----2-----|

E|---------------------------------------------------|
B|---------------------------------------------------|
G|---------------------------------------------------|
D|-----0-----0-------0-----0-----0-----0---0---0-----|
A|---0-----0-------0-----0-----0-----0---------------|
E|-2-----2-----2-3-----5-----7-----8-----7---5-------|

E|---------------------------------------------------|
B|---------------------------------------------------|
G|---------------------------------------------------|
D|-----0-----0-----0-----0-----0---------------------|
A|---0-----0-----0-----0-----0-----------------------|
E|-3-----2-----0-----0-----0-----0-------------------|

Aerials, in the sky
When you loose small mind
You free your life
Aerials, so up high
When you free your eyes
Eternal prize

E|---------------------------------------------------|
B|---------------------------------------------------|
G|---------------------------------------------------|
D|-----0-----0-----0-----0-----0-------0-----0-----0-|
A|---0-----0-----0-----0-----0-------0-----0-----0---|
E|-3-----2-----0-----0-----0-----0-5-----3-----2-----|

E|---------------------------------------------------|
B|---------------------------------------------------|
G|---------------------------------------------------|
D|-----0-----0-------0-----0-----0-----0---0---0-----|
A|---0-----0-------0-----0-----0-----0---------------|
E|-2-----2-----2-3-----5-----7-----8-----7---5-------|

E|---------------------------------------------------|
B|---------------------------------------------------|
G|---------------------------------------------------|
D|-----0-----0-----0-----0-----0---------------------|
A|---0-----0-----0-----0-----0---0-------------------|
E|-3-----2-----0-----0-----0-----0-------------------|

Oh oh oh...oh oh oh
Oh oh oh oh oh oh oh oh oh
Oh oh oh...oh oh oh
Oh oh oh oh oh oh oh oh oh
Compositor Daron Malakian / Serj Tankian
23.209 reproducciones
    • ½ Tom
    • A
    • Bb
    • B
    • C
    • Db
    • D
    • Eb
    • E
    • F
    • F#
    • G
    • Ab
  • Adicionar à lista

    0 comentarios

    Mostrar mais comentários
    00:00 / 00:00
    outros vídeos desta música
    repetir qualidade Automático
    Outros vídeos desta música
    00:00 / 00:00
    Automático
    Capítulos
    • Início
    • Afinação
    • Tocando a música
    • Tocando Introdução
    • Ensinando Introdução - Riff 1
    • Ensinando Introdução - Riff 2
    • Tocando Introdução (Lento)
    • Tocando Primeira Parte
    • Ensinando Primeira Parte
    • Tocando Refrão
    • Ensinando Refrão
    • Tocando Segunda Parte
    • Ensinando Segunda Parte (Variação)
    • Tocando Segundo Refrão e Final
    • Ensinando Segundo Refrão
    • Ensinando Final
    • Encerramento
    OK