Cifra Club

Atwa

System Of a Down

Cifrado: Principal (guitarra y guitarra eléctrica)
tono: G
Afinação: C G C F A D (Drop C)

Riff 1:
D|---------------------------------------------------------|
A|---------------------------------------------------------|
F|-------3-----2-----5-----7------8------7-----5-----3-----|
C|---------------------------------------------------------|
G|---------------------------------------------------------|
C|-----5---5-3---3-7---7-8---8-10---10-8---8-7---7-5---5---|

Riff 2:
P.M.. . . . . . .  . . . . . . . 
D|---------------------------------|
A|---------------------------------|
F|---------------------------------|
C|---------------------------------|
G|--5-5-5-5-5-5-5--5-5-5-5-5-5-5---|
C|--5-5-5-5-5-5-5--5-5-5-5-5-5-5---|

Riff 3:
P.M.. . . . . . . . 
D|--------------------|
A|--------------------|
F|--------------------|
C|--------------------|
G|--5-5-5-5-6-6-6-6---|
C|--5-5-5-5-6-6-6-6---|

(Riff 1)
nenanenaneee
nenanananaaa

(Riff 1)
Hey you
See me?
Pictures crazy
All the world I've seen before me passing by
I've got nothing to gain, to lose
All the world I've seen before me passing by

(Riff 2)
You don't care about how I feel
I don't feel it anymore
You don't care about how I feel
I don't feel it anymore
You don't care about how I feel
I don't feel it anymore
You don't care about how I feel
I don't feel it anymore

(Riff 1)
Anymore 
Nananana nananana nanana

(Riff 1)
Hey you, are me
Not so pretty
All the world I've seen before me passing by
Silent my voice
I've got no choice
All the world I've seen before me passing by

(Riff 2)
You don't care about how I feel
I don't feel it anymore
You don't care about how I feel
I don't feel it anymore
You don't care about how I feel
I don't feel it anymore
You don't care about how I feel

(Riff 3)
I don't feel it anymore


Riff 4:
 
D|-----------------|
A|-----------------|
F|-----------------|
C|--5--5--5--5-6---|
G|--5--5--5--5-6---|
C|--5--5--5--5-6---|

(Riff 4)
I don't see
Anymore
I don't hear
Anymore
I don't speak
Anymore
I don't feel


Solo:

D|----------------------------------------------------------|
A|----------------------------------------------------------|
F|--12-12--10-10-14-14--15-15--17-17--15-15--14-14--12-12---|
C|----------------------------------------------------------|
G|--10-10--8--8--12-12--13-13--15-15--13-13--12-12--10-10---|
C|----------------------------------------------------------|

D|--------------------------------------------------------------------------------------|
A|--6~6~6~6~6~6~6~6~-8~8~8~8~8~8~8~8~-10~10~10~10~10~10~10~10~-11~11~11~11~11~11~11~11~-|
F|--------------------------------------------------------------------------------------|
C|--------------------------------------------------------------------------------------|
G|--------------------------------------------------------------------------------------|
C|--------------------------------------------------------------------------------------|

D|----------------------------------------------------------------------------------------------|
A|--13~13~13~13~13~13~13~13~-11~11~11~11~11~11~11~11~-10~10~10~10~10~10~10~10~-8~8~8~8~8~8~8~8~-|
F|----------------------------------------------------------------------------------------------|
C|----------------------------------------------------------------------------------------------|
G|----------------------------------------------------------------------------------------------|
C|----------------------------------------------------------------------------------------------|

(Solo)
Nananana nananana nanana
Nananana nananana nanana

Riff 5:  
D|--------------------------------------------|
A|--------------------------------------------|
F|--------------------------------------------|
C|--5-5--3-3--7-7--8-8--10-10--8-8--7-7--5-5--|
G|--5-5--3-3--7-7--8-8--10-10--8-8--7-7--5-5--|
C|--5-5--3-3--7-7--8-8--10-10--8-8--7-7--5-5--|

(Riff 5)
Hey you
See me?
Pictures crazy
All the world I've seen before me passing by
I've got nothing to gain to lose
All the world I've seen before me passing by

(Riff 2)
You don't care about how I feel
I don't feel it anymore
You don't care about how I feel
I don't feel it anymore
You don't care about how I feel
I don't feel it anymore
You don't care about how I feel

(Riff 3)
I don't feel it anymore

(Riff 4)
I don't sleep
Anymore
I don't eat
Anymore
I don't live
Anymore
I don't feel
00:00 / 00:00
Otros videos de esta canción
Repetir
Otros videos de esta canción
Composición de Daron Malakian / Serj Tankian
9.455 vistas
    • ½ Tono
    • A
    • Bb
    • B
    • C
    • Db
    • D
    • Eb
    • E
    • F
    • F#
    • G
    • Ab
  • Agregar a la lista

    0 comentarios

    Ver todos los comentarios
    00:00 / 00:00
    OK