Cifra Club

Prison song

System Of a Down

Tab de bajo: Principal
Afinação: De cima para baixo:  C(Dó), G(Sol), C(Dó), F#(Fá#).


|--------------|
|--------------|
|--------------|
|0-------------|

|-----------------------------------|
|-----------------------------------|
|---------------------------1-1-1-1-|
|0-1-3-1-0-1-3-1-0-1-3-1-0-1--------|

They're trying to build a prison...

|-----------------------------------|
|-----------------------------------|
|---------------------------1-1-1-1-|
|0-1-3-1-0-1-3-1-0-1-3-1-0-1--------|

They're trying to build a prison...

|-----------------------------------|
|-----------------------------------|
|-----------------------------------|
|0-1-3-1-0-1-3-1-0-1-3-1------------|

|---------------------------------------------------------------|
|---------------------------------------------------------------|
|1-1-1-1------------------------------------------------1-1-1-1-|
|-------0-1-0-1-0-1-0--0-1-0-1-0-1-0-0-1-0-1-0-1-0-0-1-0--------|

|--------------------------------------------------------|
|--------------------------------------------------------|
|------------------------------------------------1-1-1-1-|
|0-1-0-1-0-1-0--0-1-0-1-0-1-0-0-1-0-1-0-1-0-0-1-0--------|

|-----------------------------------|
|-----------------------------------|
|---------------------------1-1-1-1-|
|0-1-3-1-0-1-3-1-0-1-3-1-0-1--------|

|--------------------------------------------------------|
|--------------------------------------------------------|
|------------------------------------------------1-1-1-1-|
|0-1-0-1-0-1-0--0-1-0-1-0-1-0-0-1-0-1-0-1-0-0-1-0--------|

Following the rights movements..
|--------------------------------|
|--------------------------------| 4x
|5-5-6-5-5-5-6-5-5-5-6-0-8-0-6-0-|
|--------------------------------|

I buy my crack, my smack, my bitch right here in Hollywood.
|------------------------|
|------------------------|
|5-6-5-6-8-6-5-6-5-6-8-6-|
|------------------------|

Nearly 2 million Americans are incarcerated..
|--------------------------------------------------------|
|--------------------------------------------------------|
|5-5-6-5-5-5-6-5-5-5-6-0-8-0-6-0-5-5-6-5-5-5-6-5-5-5-6-5-|
|--------------------------------------------------------|

They're trying to build a prison!
|---------------------------------------------------------------------|
|---------------------------------------------------------------------|
|--------------------------------------------------------------1-1-1-1|
|0-8-0-8-0-8-0-0-1-0-3-0-1-0-0-1-0-3-0-1-0-0-1-0-3-0-1-0-0-1-0--------|

|--------------------------------------------------------|
|--------------------------------------------------------|
|-------------------------------------------------1-1-1-1|
|-0-1-0-3-0-1-0-0-1-0-3-0-1-0-0-1-0-3-0-1-0-0-1-0--------|

Minor drug offenders fill your prisons...
|------------------------------|
|------------------------------| 4x
|5-5-6-5-5-5-6-5-5-5-5-0-6-0-8-| 
|------------------------------|

I buy my crack, my smack, my bitch right here in Hollywood.
|------------------------|
|------------------------|
|5-6-5-6-8-6-5-6-5-6-8-6-|
|------------------------|

The percentage of Americans in the prison system...
|--------------------------------------------------------|
|--------------------------------------------------------|
|5-5-6-5-5-5-6-5-5-5-6-0-8-0-6-0-5-5-6-5-5-5-6-5-5-5-6-5-|
|--------------------------------------------------------|

They're trying to build a prison!
|---------------------------------------------------------------------|
|---------------------------------------------------------------------|
|--------------------------------------------------------------1-1-1-1|
|0-8-0-8-0-8-0-0-1-0-3-0-1-0-0-1-0-3-0-1-0-0-1-0-3-0-1-0-0-1-0--------|

|--------------------------------------------------------|
|--------------------------------------------------------|
|-------------------------------------------------1-1-1-1|
|-0-1-0-3-0-1-0-0-1-0-3-0-1-0-0-1-0-3-0-1-0-0-1-0--------|

|-----------------------------------|
|-----------------------------------|
|---------------------------1-1-1-1-|
|0-1-3-1-0-1-3-1-0-1-3-1-0-1--------|

They're trying to build a prison,For you and me,Oh baby, you and me...
|--------------------------------------------------------|
|--------------------------------------------------------|
|-------------------------------------------------1-0----|
|-0-1-0-3-0-1-0-0-1-0-3-0-1-0-0-1-0-3-0-1-0-0-1-0--------|

|------------------------------------------------------------|
|------------------------------------------------------------|
|------------------------------------------------------------|
|0-0-0-0-0-0-0-0-0-0-0-8-8-8-8-0-0-0-0-0-0-0-0-0-0-0-8-8-8-8-|
 
All research and successful drug policy show...
|------------------------------------------------------------|
|------------------------------------------------------------|
|------------------------------------------------------------|
|0-0-0-0-0-0-0-0-0-0-0-8-8-8-8-0-0-0-0-0-0-0-0-0-0-0-8-8-8-8-|

Utilizing drugs to pay for secret wars around the world...
|--------------------------------|
|--------------------------------| 4x (agora mais lento [slower])
|5-5-6-5-5-5-6-5-5-5-6-0-8-0-6-0-|
|--------------------------------|

I buy my crack, my smack, my bitch...
|--------------------------------|
|--------------------------------| 4x
|5-5-6-5-5-5-6-5-5-5-6-0-8-0-6-0-|
|--------------------------------|

They're trying to build a prison!
|---------------------------------------------------------------------|
|---------------------------------------------------------------------|
|--------------------------------------------------------------1-1-1-1|
|0-8-0-8-0-8-0-0-1-0-3-0-1-0-0-1-0-3-0-1-0-0-1-0-3-0-1-0-0-1-0--------|

|--------------------------------------------------------|
|--------------------------------------------------------|
|-------------------------------------------------1-1-1-1|
|-0-1-0-3-0-1-0-0-1-0-3-0-1-0-0-1-0-3-0-1-0-0-1-0--------|

|-----------------------------------|
|-----------------------------------|
|---------------------------1-1-1-1-|
|0-1-3-1-0-1-3-1-0-1-3-1-0-1--------|

They're trying to build a prison,For you and me,Oh baby, you and me...
|--------------------------------------------------------|
|--------------------------------------------------------|
|-------------------------------------------------1-0----|
|-0-1-0-3-0-1-0-0-1-0-3-0-1-0-0-1-0-3-0-1-0-0-1-0-----0--|


_______________________________________________________
Contribuição: Pedro Henrique dos Santos(pedro_cavalera@hotmail.com)
00:00 / 00:00
Otros videos de esta canción
Repetir
Otros videos de esta canción
Composición de Daron Malakian / Serj Tankian
114 vistas

0 comentarios

Ver todos los comentarios
00:00 / 00:00
OK