Cifra Club

Soldier Side (Intro)

System Of A Down

Cifrado: Principal (guitarra y guitarra eléctrica)
Selo Cifra Club: esta cifra foi revisada para atender aos critérios oficiais da nossa Equipe de Qualidade.
tono: F
[Intro]

E|-------------------------------------------|
B|-------------------------------------------|
G|-2---2-3-2--1----1-----3-5/7\5-3-2---2-----|
D|-0----------0------------------------------|
A|-0----------0------------------------------|
E|-3-3--------2--2---2-5-------------0---0---|

E|-------------------------------------------|
B|-----------------------2---2-3-3/5-5-------|
G|-1----1--------1---------------------------|
D|-0---------2---------2---2-----------------|
A|-0-----------------0-----------------------|
E|-2-2-----2---2---2--------------------0----|

[Estrofes]

E|----------------------------------------------------------------|
B|--------------------------------------------------2---2-3/5-5---|
G|--2------1-----3------2----1------1-------1---------------------|
D|---------------------------0----------2---------2---2-----------|
A|---------------------------0------------------0-----------------|
E|3---3-2----2-5----5-0----0-2----2---2---2---2-----------------0-|

E|----------------------------------------------------------------|
B|--------------------------------------------------2---2-3/5-5---|
G|--2------1-----3------2----1------1-------1---------------------|
D|---------------------------0----------2---------2---2-----------|
A|---------------------------0------------------0-----------------|
E|3---3-2----2-5----5-0----0-2----2---2---2---2-----------------0-|

[Final]

E|--------------------------------------------|
B|-10---10-11-10--9---9------11/13-15\13-11/10|
G|-x--------------x----------12/14-15\14-12/10|
D|-x--------------x---------------------------|
A|-8--8-----------7-7---7-10------------------|
E|--------------------------------------------|

E|--------------------------------------|
B|----10---9---9-------9-------------10-|
G|----10---9--------9-------10---9------|
D|--------------------------7-----------|
A|--8----8---7---7---7---7--0--0---0----|
E|--------------------------------------|
Otros videos de esta canción
    11.159 exhibiciones
      • ½ Tono
      • A
      • Bb
      • B
      • C
      • Db
      • D
      • Eb
      • E
      • F
      • F#
      • G
      • Ab
    • Agregar a la lista

    Afinação da cifra

    Afinador online

      Ops (: Contenido disponible solo en portugués.
      OK