Cifra Club

Bartender

T-Pain

Cifrado: Principal (guitarra y guitarra eléctrica)
Selo Cifra Club: esta cifra foi revisada para atender aos critérios oficiais da nossa Equipe de Qualidade.
tono: Cm
[Intro]
E|-----------------------------------------------|
B|------9-------------6--4---4---4---4----4------|
G|--------8-----------5--3----3---3----3---------|
D|--10------10--------6--5------4---4----4-------|
A|--8-----------------4--3-----------------------|
E|-----------------------------------------------|
         Broke up with my girl last night..
E|------------------------------------------3---------------------------------|
B|------9-------------6--4---4---4----4-----2---------------------------------|
G|--------8-----------5--3----3---3---------3---------------------------------|
D|--10------10--------6--5------4---4-------2---------------------------------|
A|--8-----------------4--3----------------------------------------------------|
E|----------------------------------------------------------------------------|

E|-----------------------------------------------|
B|------9-------------6--4---4---4---4----4------|
G|--------8-----------5--3----3---3----3---------|
D|--10------10--------6--5------4---4----4-------|
A|--8-----------------4--3-----------------------|
E|-----------------------------------------------|

E|---------------------------------------------3------------------------------|
B|------9-------------6--4------4--2-----1-----2------------------------------|
G|--------8-----------5--3------3--1-----0-----3------------------------------|
D|--10------10--------6--5------5--3-----2-----2------------------------------|
A|--8-----------------4--3------3--1------------------------------------------|
E|---------------------------------------3------------------------------------|
Otros videos de esta canción
    21 exhibiciones
      • ½ Tono
      • Am
      • Bbm
      • Bm
      • Cm
      • C#m
      • Dm
      • Ebm
      • Em
      • Fm
      • F#m
      • Gm
      • G#m
    • Agregar a la lista

    Afinação da cifra

    Afinador online

      Ops (: Contenido disponible solo en portugués.
      OK