Cifra Club

Jeepster

T. Rex

Cifrado: Principal (guitarra y guitarra eléctrica)
tono: D
Intro:

    A7
E|--3--3--3-      -------------3--3--3----------------------|
B|--2--2--2-      -------------2--2--2----------------------|
G|--2--2--2- 4x   -------------2--2--2------------etc.------|
D|--2--2--2- then -------------2--2--2----------------------|
A|----------      ------------------------------------------|
E|----------      --0--2--4--5----------0--2--4--5----------|

Verse:

E|--3--3--3---------------------3--3--3--------------------|
B|--2--2--2---------------------2--2--2--------------------|
G|--2--2--2---------------------2--2--2--------------------|
D|--2--2--2---------------------2--2--2--------------------|
A|---------------------------------------------------------|
E|------------------0--2--4--5-----------------0--2--4--5--|
   You're so sweet,            You're so fine


E|--3--3--3-------------------------------------------|
B|--2--2--2-----------------1-------------1-----1-----|
G|--2--2--2-----------------0-------------0-----2-----|
D|--2--2--2-----------------2-------------0-----2-----|
A|--------------------------3-------------2-----------|
E|--------------------------3-------------------------|
   I want you all and everything jit-jit to be mine

                   D
E|-----------------2-----------------2--2--2-----------------------3--3--3--|
B|-----------------3-----------------3--3--3-----------------------2--2--2--|
G|-----------------2-----------------2--2--2-----------------------2--2--2--|
D|-----------------------------------------------------------------2--2--2--|
A|-----------------------0--2--4--5-----------------------------------------|
E|--------------------------------------------------------------------------|
   Cause I'm your babe,                      Cause you're my love

Chorus:

       G5
E|--------------------------------------------------------------3--3--3--|
B|--------------------------------------------------------------2--2--2--|
G|--------------------------------------------------------------2--2--2--|etc.
D|-----5--------------------------------------------------------2--2--2--|
A|-----5---------------------------------3--2--1--0----------------------|
E|-----3---------------2-----------------------------0--2--4--5----------|
   Oh girl I'm just a jeepster for your love


Lyrics (as I hear them):

You're so sweet, You're so fine
I want you all and everything jit-jit (?) to be mine
Cause you're my babe, cause you're my love
Oh girl I'm just a jeepster for your love

You slide so good with bones (?) so fair
You've got the universe reclining in your hair
Cause you're my baby, yes you're my love
Oh girl I'm just a jeepster for your love

Just like a car you're pleasing to behold
I'll car you Jaguar if I may be so bold
Yes you're my baby, yes you're my love
Oh girl I'm just a jeepster for your love

Your wild wings glow upon your frozen cheeks
The way you flip your head (?) it always makes me weak
Cause you're my baby, yes you're my love
Oh girl I'm just a jeepster for your love

Your motivation is so sweet
Your vibrations are burning out my feet
Cause you're my baby, yes you're my love
Oh girl I'm just a jeepster for your love
I said girl i'm just a vampire for your love
        And I'm gonna suck you


Notes:  Marc Bolan occasionally plays A rather than A7 in the main
riff.  He also sometimes uses Dsus4 in combination with the D in
the "I'm your babe..." part.

The version on "Electric Warrior" is in standard tuning.  The version
in the "Born to Boogie" film is a half step higher.
00:00 / 00:00
Otros videos de esta canción
Repetir
Otros videos de esta canción
Composición de Marc Bolan
Colaboración y revisión:
  • Sergio Nascimento
136 vistas
    • ½ Tono
    • A
    • Bb
    • B
    • C
    • Db
    • D
    • Eb
    • E
    • F
    • F#
    • G
    • Ab
  • Agregar a la lista

    0 comentarios

    Ver todos los comentarios

    ¿Lograste tocar?

    2 Tocaron 0 Aún no

    ¡Graba un video tocando Jeepster y envíanoslo!

    00:00 / 00:00
    OK