Cifra Club

These Days

Take That

Cifrado: Principal (guitarra y guitarra eléctrica)
tono: Db (con acordes en la forma de C) Capotraste en 1ª casa
[Primeira Parte]

          F
Oh I can see the future
 C
Coming to you
  Am                            G
Crying with the sadness in your eyes
           F               C
And I can find a faith in days

I've wasted
 Am                          G
Been around enough to feel alive

[Tab - Primeira Parte]

Parte 1 de 4
   F
E|------------------------------------------|
B|-1------1---------------------------------|
G|-2------2---------------------------------|
D|-3---x--3---x-----------------------------|
A|-----x------x-----------------------------|
E|-1-1-x--1-1-x--1--------------------------|

Parte 2 de 4
   C
E|------------------------------------------|
B|-1------1---------------------------------|
G|-0------0---------------------------------|
D|-2---x--2---x-----------------------------|
A|-3-3-x--3-3-x--3--------------------------|
E|-----x------x-----------------------------|

Parte 3 de 4
   Am
E|------------------------------------------|
B|-1------1---------------------------------|
G|-0------0---------------------------------|
D|-2---x--2---x-----------------------------|
A|-0-0-x--0-0-x--0--------------------------|
E|-----x------x-----------------------------|

Parte 4 de 4
   G
E|------------------------------------------|
B|-3------3---------------------------------|
G|-0------0---------------------------------|
D|-0---x--0---x-----------------------------|
A|-----x------x-----------------------------|
E|-3-3-x--3-3-x--3--------------------------|

              F
And when the world is broken
 C
Hard and colder
 Am                            G
No one ever knows the reason why
        F
For the ones we may become
         C
For the battles we have won
         Am
For the day we reach the sun
        G
Gonna play it loud tonight

[Segunda Parte]

[Tab - Segunda Parte]

Parte 1 de 4
   F      C
E|------------------------------------------|
B|-1-1----1-1----1--------------------------|
G|-2-2----0-0-x--0--------------------------|
D|-3-3-x--2-2-x--2--------------------------|
A|-----x--3-3-x--3--------------------------|
E|-1-1-x------------------------------------|

Parte 2 de 4
   Am     Dm
E|--------1-1----1--------------------------|
B|-1-1----3-3----3--------------------------|
G|-0-0----2-2-x--2--------------------------|
D|-2-2-x--0-0-x--0--------------------------|
A|-0-0-x------x-----------------------------|
E|-----x------------------------------------|

Parte 3 de 4
   Em     Dm
E|--------1-1----1--------------------------|
B|-0-0----3-3----3--------------------------|
G|-0-0----2-2-x--2--------------------------|
D|-2-2-x--0-0-x--0--------------------------|
A|-----x------x-----------------------------|
E|-0-0-x------------------------------------|

Parte 4 de 4
   Am     G
E|------------------------------------------|
B|-1-1----3-3----3--------------------------|
G|-0-0----0-0-x--0--------------------------|
D|-2-2-x--0-0-x--0--------------------------|
A|-0-0-x------x-----------------------------|
E|-----x--3-3----3--------------------------|

( F  C  Am  Dm )
( Em  Dm  Am  G )

F   C
  When you dream of a dream
Am  Dm
    And you live in the world
Em  Dm
    Every hope is a hope
         Am
For the best don't want
 G              F
You rest on my bones
C
And you're calling me now
Am  Dm
    I will see you all the time
Em   Dm                            Am
   Should be out there living the life
         G
And not just watching you

 F       C
Take me back
          Am      Dm
Before we all explode
           Em       Dm
Before we turn to stone
            Am       G
Before the light is gone
 F
Take me back
            C
To where it all began
              Am
To where our memories grow
             G
Before they take us over

[Refrão]

F  C      Am     G
  Tonight    we gotta live for
F     C               Am   G
  We gotta live for these days
   F      C       Am  G
Tonight, tonight,    we'll remember               
F  C               Am   G
  We'll remember these days

[Segunda Parte]

F   C
  What a day to believe
Am  Dm
   To believe in the night
Em  Dm
   Want a date to belong
      Am
To a face in the crowd
G                     F
And the beat of your heart
        C
And I'm already in
Am  Dm
    And you're working it out
Em  Dm
    And you're holding us all
         Am
In your hands 
              G
Oh, what are you waiting for

 F       C
Take me back
           Am       Dm
Before we lose control
            Em     Dm
Before the tables turn
            Am     G
Before we break it off
 F
Take me back
            C
To where it all began
              Am
To where our memories grow
             G
Before they take us over

[Refrão]

F  C      Am     G
  Tonight    we gotta live for
F     C               Am   G
  We gotta live for these days
   F      C       Am  G
Tonight, tonight,    we'll remember               
F  C               Am   G
  We'll remember these days

[Primeira Parte]

          F
Oh I can see the future
 C
Coming to you
  Am                            G
Crying with the sadness in your eyes
           F               C
And I can find a faith in days

I've wasted
 Am                           G
Being around enough to feel alive
              F
And when the world is broken
 C
Hard and colder
 Am                            G
No one ever knows the reason why
        F
For the ones we may become
         C
For the battles we have won
         Am
For the day we reach the sun
        G
Gonna play it loud tonight

[Refrão Final]

F  C      Am     G
  Tonight    we gotta live for
F     C               Am   G
  We gotta live for these days
   F      C       Am  G
Tonight, tonight,    we'll remember                 
F  C               Am   G
  We'll remember these days

   F      C      Am     G
Tonight, tonight    we gotta live for
F     C               Am   G
  We gotta live for these days
   F      C       Am  G
Tonight, tonight,    we'll remember              
F  C               Am   G
  We'll remember these days

F         C
Oh oh oh,   oh-oh
Am        G
Oh oh oh,   oh-oh
F         C
Oh oh oh,   oh-oh
  Am   G
These Days

F         C
Oh oh oh,   oh-oh
Am        G
Oh oh oh,   oh-oh
F         C
Oh oh oh,   oh-oh
  Am   G
These Days

F         C
Oh oh oh,   oh-oh
Am        G
Oh oh oh,   oh-oh
F         C
Oh oh oh,   oh-oh
  Am   G
These Days
Compositor não encontrado.
Colaboración y revisión:
  • Gustavo Cunha
  • Áurea Solino
30 vistas
  • Simplificar cifrado
    • ½ Tono
    • A
    • Bb
    • B
    • C
    • Db
    • D
    • Eb
    • E
    • F
    • F#
    • G
    • Ab
  • Agregar a la lista

    0 comentarios

    Ver todos los comentarios

    ¿Lograste tocar?

    1 Tocaron 1 Aún no

    ¡Graba un video tocando These Days y envíanoslo!

    00:00 / 00:00
    Outros vídeos desta música
    Repetir Calidad Automático
    Outros vídeos desta música
    00:00 / 00:00
    Automático
    Capítulos
    • Tocando a Música
    • Dicas iniciais / Equipamentos
    • Acordes da música
    • Tocando Introdução e Primeira Parte
    • Ensinando Introdução
    • Primeira Parte - Parte 1 de 4
    • Primeira Parte - Parte 2 de 4
    • Primeira Parte - Parte 3 de 4
    • Primeira Parte - Parte 4 de 4
    • Dicas Segunda Parte
    • Tocando Segunda parte
    • Ensinando Segunda Parte - Parte 1 de 4
    • Ensinando Segunda Parte - Parte 2 de 4
    • Ensinando Segunda Parte - Parte 3 de 4
    • Ensinando Segunda Parte - Parte 4 de 4
    • Dicas Refrão
    • Tocando Refrão
    • Ensinando Refrão
    • Dicas Finais / Encerramento
    • Ficha Técnica / Erros de Gravação
    OK