Cifra Club

You're So Last Summer

Taking Back Sunday

Cifrado: Principal (guitarra y guitarra eléctrica)
Selo Cifra Club: esta cifra foi revisada para atender aos critérios oficiais da nossa Equipe de Qualidade.
tono: G
Introdução [4x]

g |------------------------------------|
d |---7-7-7-7-7--7-7-7-7-7-7-7-7-7-----|
a |---4-4-4-4-4/-5-5-5-5-5-5-5-5-5-----|
e |------------------------------------|

Verso 1 guitarra 1

g |--------------------------------------------------|
d |--7---7--7---7---4------------7---7---4-----------|
a |--4-/-5--4-/-5----2---5-------4-/-5---2---5-------|
e |---------------------3--------------------3-------|

Verso 1 guitarra 2 [2x] escute a musica para pegar o tempo certo blz

e |---5--------------5-------------|
b |-----7--5--7--------7--5h7------|
g |----------------------------7---|
d |--------------------------------|


Refrão [2x]

g |-------------------|
d |--7-------4--------|
a |--5---4---2---5----|
e |------2-------3----|


 Verso as duas guitarras juntas

g |------------------------------------------------------|
d |--7---7--7---7---4------------7---7---4---------------|
a |--4-/-5--4-/-5---2---5--------4-/-5---2---5-----------|
e |---------------------3--------------------3-----------|

Refrão [2x]

g |-------------------|
d |--7-------4--------|
a |--5---4---2---5----|
e |------2-------3----|


Verso 2 guitarra 1 tudo isso ai abaixo eh 2x 


g |-----------------------------------7(h)----|---------------|
d |--7-7-7-7-7---7-7-7-7-7-7-7-7-7------------|---------4-----|
a |--4-4-4-4-4-/-5-5-5-5-5-5-5-5-5------------|--4------2-----|
e |----------------------------2x-------------|--2------------|

Verso 2 guitarra 2 ouça a musica para pegar o tempo certo blz


e |--5------12---9----------|------------------------|
b |-----7-------------------|------------------------|
g |-------------------------|------------------------|
d |-------------------------|-------------4----------|
a |-----------------2x------|----4--------2----------|
E |-------------------------|----2-------------------|

Verso 3 guitarra 1 [4x]

g |---------------------|
d |--7------------------|
a |--5--7----9----5-----|
e |-----5----7----3-----|


Verso 3 guitarra 2 [4x]

g |--7----9---11---14---------|
d |--x----x----x----x---------|
a |--5----7----9---12---------|
e |---------------------------|


Final faça com uma guitarra só de preferência

g |-------7------------------|
d |----7----7----------------|
a |--5-----------------8x----|
e |--------------------------|

eh issu aew galera tem algumas oitavadas no refrao so 
que eh muito grande dai deu uma priguiiiiiisa rsrsrs de colok 
mais podi confia tudu que ta ai tem na musik eh so 
iscuta e pega o ritimo certo  ahh i a musi ka acaba com esse acorde ai abaixo 

Ultima nota

g |-----------------|
d |-------7---------|
a |-------5---------|
e |-----------------|
Otros videos de esta canción
    2.317 exhibiciones
      • ½ Tono
      • A
      • Bb
      • B
      • C
      • Db
      • D
      • Eb
      • E
      • F
      • F#
      • G
      • Ab
    • Agregar a la lista

    Afinación de cifrado

    Afinador online

      OK