Cifra Club

Desire Be Desire Go

Tame Impala

Tablatura: Principal (guitarra)
Tom: G
Fuzzy intro part:
Guitar 1:         Guitar 2:
E|----------------|----------------|
B|-3--------------|----------------|
G|-5b7------------|----------------|
D|----------------|------12~~~~----|
A|----------------|----------------|
E|----------------|----------------|

Verse:
"Feel it come, I-I don't know
How long it's, go-o-onna
Stay with me, whoa-oa, I let
Desire be, de-esire go,
Ooh"
E|-6--8--6--6/8-6/8-6--4--|
B|-6--8--8--6/8-6/8-8--6--|
G|-6--8--8--6/8-6/8-8--5--| x6
D|-4--6--8--4/6-4/6-8--6--|
A|-------6----------6--4--|
E|------------------------|

Pre-chorus:
"Dare I face the real world"
E|-6--8--6--6/8-6/8-6--4--6--|
B|-6--8--8--6/8-6/8-8--6--6--|
G|-6--8--8--6/8-6/8-8--5--7--|
D|-4--6--8--4/6-4/6-8--6--8--|
A|-------6----------6--4--8--|
E|------------------------6--|

Chorus:
"Everyday, back and forth, what's it for?
What's it for? Back and forth, everyday,
Everyday, back and forth, what's it for?
I don't know, I'll get out won't have to..."
E|------------------|
B|------------------|
G|------------------| x4
D|-5---7---8---10---|
A|-5---7---8---10---|
E|-3---5---6----8---|

"...che..."
E|------|
B|------|
G|------|
D|-6----|
A|-6----|
E|-4----|

Verse:
"...eck my watch, I-I don't have
The verve to be-elong to
This dead side, whoa-oa, why I
Ever tried, I-I don't know
Ooh"
E|-6--8--6--6/8-6/8-6--4--|
B|-6--8--8--6/8-6/8-8--6--|
G|-6--8--8--6/8-6/8-8--5--| x6
D|-4--6--8--4/6-4/6-8--6--|
A|-------6----------6--4--|
E|------------------------|

Pre-chorus:
"Dare I face the real world"
E|-6--8--6--6/8-6/8-6--4--6--|
B|-6--8--8--6/8-6/8-8--6--6--|
G|-6--8--8--6/8-6/8-8--5--7--|
D|-4--6--8--4/6-4/6-8--6--8--|
A|-------6----------6--4--8--|
E|------------------------6--|

Chorus:
"Everyday, back and forth, what's it for?
What's it for? Back and forth, everyday,
Everyday, back and forth, what's it for?
I don't know, I forget, try to let..."
E|------------------|
B|------------------|
G|------------------| x4
D|-5---7---8---10---|
A|-5---7---8---10---|
E|-3---5---6----8---|

"...de-e..."
E|------|
B|------|
G|------|
D|-6----|
A|-6----|
E|-4----|

"...esire be, de-esire go"
E|-6--8--6--6/8-6/8-6--4--|
B|-6--8--8--6/8-6/8-8--6--|
G|-6--8--8--6/8-6/8-8--5--|
D|-4--6--8--4/6-4/6-8--6--|
A|-------6----------6--4--|
E|------------------------|

Pre-solo riff:
E|----------------------------------------------------------|
B|----------------------------------------------------------|
G|----------------------------------------------------8-----|
D|----------------------------------------------------8-----|
A|-6/8-8--8-8--6/8-8--8-8--9\8-8-9\8-8-8\6-6/8-8--8-8-8-----|
E|----------------------------------------------------------|

Guitar solo:
E|-----------------------------------------------------|
B|-6---6b7-4---4---------------------------------------|
G|-----------7---5-------5h7-8~~~-------5h7-8~~~-------|
D|-----------------------------------------------------|
A|-----------------------------------------------------|
E|-----------------------------------------------------|

This part is actually whammy bar vibrato, going from the 4th fret to the 3rd fret and
back and forth. I'm not sure how to tab whammy stuff, so this is how to do it without
a whammy bar. It's a bit confusing to read, but it's just hammering on and pulling off:
E|----------------------------------------------------------|
B|----------------------------------------------------------|
G|----------------------------------------------------------|
D|-4--p3h4p3h4p3h4p3h4p3h4p3h4p3h4p3h4p3h4p3h4p3h4p3h4------|
A|----------------------------------------------------------|
E|----------------------------------------------------------|

E|----------------------------------------------------------|
B|----------------------------------------------------------|
G|----------------------------------------------------------|
D|-/8\4-----------------------------------------------------|
A|--------/8~~~---------------------------------------------|
E|----------------------------------------------------------|

E|-------------------------------------------------------------|
B|-------------------------------------------------------------|
G|-------------------------------------------------------------|
D|-------------------------------------------------------------|
A|-8--6-5-5-6--8--6-5-6/8-6--9---8--6-5-5-6--8--6-5-6/8-6--9---|
E|-------------------------------------------------------------|

E|----------------------------------------------------------------------|
B|----------------------------------------------------------------------|
G|-6h8-8-6h8-8-6h8-6h8-6----6-8-8b10-8b11r8--6--8-6-6h8-6-6h8-6-6h8-6---|
D|-----------------------8----------------------------------------------|
A|----------------------------------------------------------------------|
E|----------------------------------------------------------------------|

E|-------------------------------------------------------|
B|----------7---6----------------------------------------|
G|-----6h8--------5-------------6--\5--\3--6\5-6\5-3--1--|
D|-6h8---------------------------------------------------|
A|-------------------------------------------------------|
E|-------------------------------------------------------|

Verse chords again:
E|-6--8--6--6/8-6/8-6--4--|
B|-6--8--8--6/8-6/8-8--6--|
G|-6--8--8--6/8-6/8-8--5--| x4
D|-4--6--8--4/6-4/6-8--6--|
A|-------6----------6--4--|
E|------------------------|

Bridge:
"Feel,
Feel it come,
Feel it come,
Ah..."
E|-------------------------------------------------|
B|-------------------------------------------------|
G|-------------------------------------------------| x4 (slightly palm muted)
D|-------------------------------------------------|
A|-9--9h11-9h11-9-----9h11-11-9-11p9----------9h11-|
E|----------------11-----------------11--9h11------|

Verse:
"Feel it come, I-I don't know
How long it's, go-o-onna
Stay with me, whoa-oa, I let
Desire be, de-esire go"
E|-6--8--6--6/8-6/8-6--4--|
B|-6--8--8--6/8-6/8-8--6--|
G|-6--8--8--6/8-6/8-8--5--| x4
D|-4--6--8--4/6-4/6-8--6--|
A|-------6----------6--4--|
E|------------------------|

Fade out.
reproducciones 58
Acordes para:
    Composição: Kevin Parker Colaboración y revision:
    • Vanna

    0 comentarios

    mostrar más comentarios

    ¿Conseguiste tocar?

    0 tocaron 0 aún no

    ¡Graba un vídeo tocando Desire Be Desire Go y envianoslo!

    00:00 / 00:00
    outros vídeos desta música
    repetir qualidade Automático
    Outros vídeos desta música
    00:00 / 00:00
    Automático
    OK