Cifra Club

It Is Not Meant To Be

Tame Impala

Tablatura: Principal (guitarra)
Tom: C
Guitar
E|----------------------------------------------------------------------------|
B|----------------------------------------------------------------------------|
G|-7----7----7----7-----9----9----9----9-----7---7---7---7---7---7---7---7----| x8
D|---10---10---10---10----10---10---10---10----8---8---8---8---8---8---8---8--|
A|----------------------------------------------------------------------------|
E|----------------------------------------------------------------------------|

ou você pode usar esse intro:

E|-------------------------------------------------------------------|
B|-3---3---3---3----5---5---5---5----3---3---3---3---3---3---3---3---|
G|---5---5---5---5----5---5---5---5----3---3---3---3---3---3---3---3-| x8
D|-------------------------------------------------------------------|
A|-------------------------------------------------------------------|
E|-------------------------------------------------------------------|

Baixo

G|----------------------12--------------12------------------------------------|
D|--------------------------------12----------15--14--12--10--14--12-10-------| x8
A|-10--------12---13----------------------------------------------------13-12-|
E|----------------------------------------------------------------------------|

Am        D Am D  Am         D Am D
I wanted her,     I wanted her
    Am              D     Am              D
But she doesn't like  the life that I lead
Am              D    Am              D
She doesn't like the life that I lead
Am               D Am               D
Doesn't like sand  stuck on her feet
   Am            D Am          D
Or sitting around  smoking weed
Am               D      Am            D
I must seem more like a friend in need

      D                         G
And I boast that it is meant to be 

               F G F
but in all honesty,
 G              D        Em F
I don't have a hope in hell,
 F              G        F  G  D  Em F
I'm happy just to watch her move.
                     F G F
but in all honesty,
 G              D        Em F
I don't have a hope in hell,
 F              G        F  G  D  Em F
I'm happy just to watch her move.


Am                   D         Am             D
And she doesn't like     the friends that I make
Am                D       Am             D
doesn't make friends for friendship's sake.
Am               D          Am           D
she just gets bored sitting by the lake,
Am                   D       Am             D
her soul won't surface and her heart won't ache.

      D                         G
And I boast that it is meant to be 

               F G F
but in all honesty,
 G              D        Em F
I don't have a hope in hell,
 F              G        F  G  D  Em F
I'm happy just to watch her move.
               F G F
but in all honesty,
 G              D        Em F
I don't have a hope in hell,
 F              G        F  G  D  Em F
I'm happy just to watch her move.
reproducciones 762
Acordes para:
    Composição: Kevin Parker Colaboración y revision:
    • Vinícius Lourenço
    • Vanessa Cassidy

    0 comentarios

    mostrar más comentarios

    ¿Conseguiste tocar?

    3 tocaron 0 aún no

    ¡Graba un vídeo tocando It Is Not Meant To Be y envianoslo!

    00:00 / 00:00
    outros vídeos desta música
    repetir qualidade Automático
    Outros vídeos desta música
    00:00 / 00:00
    Automático
    OK