Cifra Club

Led Zeppelin

Tame Impala

Tablatura: Principal (guitarra)
Tom: G
E|----------------------------------------------------|
B|----5----3----5----5----3----5/7----7---------------|
G|----5----4----5----5----4----5/7----7---------------|   (6x)
D|----------------------------------------------------|
A|----------------------------------------------------|
E|----------------------------------------------------|


E|-----------------------------------------------------|
B|--5--3--5--5--3--5/7--7--7--7--5--3--5--5--3--5/7--7-|
G|--5--4--5--5--4--5/7--7--7--7--5--4--5--5--4--5/7--7-|
D|-----------------------------------------------------|
A|-----------------------------------------------------|
E|-----------------------------------------------------|



Now we're gonna repeat that, but playing the first part only 2 times and I'm gonna call this

[Riff 1]

E|--------------------------------------|
B|----5----3----5----5----3----5/7----7-|
G|----5----4----5----5----4----5/7----7-|       (2x)
D|--------------------------------------|
A|--------------------------------------|
E|--------------------------------------|


E|-------------------------------------------------------|
B|--5--3--5--5--3--5/7--7--7--7--5--3--5--5--3--5/7--7---|
G|--5--4--5--5--4--5-7--7--7--7--5--4--5--5--4--5-7--7---|
D|-------------------------------------------------------|
A|-------------------------------------------------------|
E|-------------------------------------------------------|



Then this...

[Riff 2]

E|--10--10\8---10--10\8---10--10\8---12--12--12--7--7--7--|
B|--12--12\10--12--12\10--12--12\10--13--13--13--8--8--8--|
G|--------------------------------------------------------|
D|--------------------------------------------------------|
A|--------------------------------------------------------|
E|--------------------------------------------------------|


E|--10--10\8---10--10\8----------------------------------------|
B|--12--12\10--12--12\10---------------------------------------|
G|-------------------------------7--9p7--9-------7--9p7-----7\-|
D|--------------------------7h9-------------7h9----------9-----|
A|-------------------------------------------------------------|
E|-------------------------------------------------------------|


Ok, now we do:

[Riff 1]   (2x)
[Riff 2]



And then...


E|--------------------------------------|
B|----5----3----5----5----3----5/7----7-|
G|----5----4----5----5----4----5/7----7-|            (4x)
D|--------------------------------------|
A|--------------------------------------|
E|--------------------------------------|



Now Kevin's going to start singing and we'll play:


[Riff 1]  (2x)


Careful now, this ISN'T riff two...


E|--10--10\8---10--10\8---10--10\8---10--10\8---|
B|--12--12-10--12--12-10--12--12-10--12--12-10--|
G|----------------------------------------------|
D|----------------------------------------------|
A|----------------------------------------------|
E|----------------------------------------------|



Then...


E|--------------------------------------|
B|----5----3----5----5----3----5/7----7-|
G|----5----4----5----5----4----5/7----7-|       (2x)
D|--------------------------------------|
A|--------------------------------------|
E|--------------------------------------|


And then

[Riff 2]


Now just repeat everything you played since Kevin started singing, that is...

[Riff 1] (2x)


Careful now, this ISN'T riff two...


E|--10--10\8---10--10\8---10--10\8---10--10\8---|
B|--12--12-10--12--12-10--12--12-10--12--12-10--|
G|----------------------------------------------|
D|----------------------------------------------|
A|----------------------------------------------|
E|----------------------------------------------|



Then...


E|--------------------------------------|
B|----5----3----5----5----3----5/7----7-|
G|----5----4----5----5----4----5/7----7-|           (2x)
D|--------------------------------------|
A|--------------------------------------|
E|--------------------------------------|


And then

[Riff 2]


Finally,


E|--------------------------------------|
B|----5----3----5----5----3----5/7----7-|
G|----5----4----5----5----4----5/7----7-|             x Until it fades out
D|--------------------------------------|
A|--------------------------------------|
E|--------------------------------------|



Here's the lyrics, if you wan't to sing:

[Lyrics]

Senses taking over, thought to set me free
I tried to get up but it was pouring down on me
Keeps on getting deeper, desperately to be
Said there's some guy interested in dragging it out of me
Oh, it's what I need, oh

Tell me you're in love to let it show

Just making magic, I was far enough to see it
Better than to get just what a stranger did to me
Is it because I love, is it because I don't, well, I just don't know
Keep on asking me, darling, let me see it, keep on asking
Is there any way to let it go?
reproducciones 25
Acordes para:
    Composição: Kevin Parker Colaboración y revision:
    • Vanna

    0 comentarios

    mostrar más comentarios

    ¿Conseguiste tocar?

    0 tocaron 0 aún no

    ¡Graba un vídeo tocando Led Zeppelin y envianoslo!

    00:00 / 00:00
    outros vídeos desta música
    repetir qualidade Automático
    Outros vídeos desta música
    00:00 / 00:00
    Automático
    OK