Cifra Club

Let It Happen

Tame Impala

Tab de bajo: Principal
Intro

G|-----------------|-------------------|-----------------|-----------------|
D|-----------------|-------------------|-----------------|-----------------|
A|-12--------------|-------------12-11-|-9---------------|-----------------|
E|-----------------|-------------------|-----------------|-----------------|

G|-----------------|-----------------|-----------------|-----------------|
D|-----------------|-----------------|-----------------|-----------------|
A|-11--------------|---------11------|/14-\12----------|-----14--12--11--|
E|-----------------|-----11----------|-----------------|-----------------|

G|-----------------|-----------------|-----------------|-----------------|
D|-----------------|-----------------|-----------------|-----------------|
A|-9---------------|---------9-------|-11--------------|---------11------|
E|-----------------|-----9-----------|-----------------|-----11----------|

G|-----------------|-------------------|-----------------|-----------------|
D|-----------------|-------------------|-----------------|-----------------|
A|-12--------------|-------------12-11-|-9---------------|-----------------|
E|-----------------|-------------------|-----------------|-----------------|

G|-----------------|-----------------|-----------------|-----------------|
D|-----------------|-----------------|-----------------|-----------------|
A|-11--------------|-----9---11------|/14-\12----------|-----14--12--11--|
E|-----------------|-----------------|-----------------|-----------------|

G|-----------------|-----------------|-----------------|-----------------|
D|-----------------|-----------------|-13--------------|-----14--16------|
A|-9---------------|---------9-------|-----------------|-----------------|
E|-----------------|-----9-----------|-----------------|-----------------|

Verse 1

G|-----------------|-----------------|-----------------|-----------------|
D|-----------------|-----------------|-----------------|-----------------|
A|-----------------|-----------------|-9---------------|-----------------|
E|-5---------------|---------7---9---|-----------------|-----------------|

G|-----------------|-----------------|-----------------|-----------------|
D|-----------------|-----------------|-----------------|-----------------|
A|-11--------------|-----9---11------|/14-\12----------|-----14--12--11--|
E|-----------------|-----------------|-----------------|-----------------|

G|-----------------|-----------------|-----------------|-----------------|
D|-----------------|-----------------|-----------------|-----------------|
A|-9---------------|---------9-------|-11--------------|---------11------|
E|-----------------|-----9-----------|-----------------|-----11----------|

G|-----------------|-------------------|-----------------|-----------------|
D|-----------------|-------------------|-----------------|-----------------|
A|-12--------------|-------------12-11-|-9---------------|---------9-------|
E|-----------------|-------------------|-----------------|-----9-----------|

G|-----------------|-----------------|-----------------|-----------------|
D|-----------------|-----------------|-----------------|-----------------|
A|-11--------------|-----9---11------|/14-\12----------|-----14--12--11--|
E|-----------------|-----------------|-----------------|-----------------|

G|-----------------|-----------------|-----------------|-----------------|
D|-----------------|-----------------|-----------------|-----------------|
A|-9---------------|---------9-------|-11--------------|---------11------|
E|-----------------|-----9-----------|-----------------|-----11----------|

G|-----------------|-----------------|-----------------|-----------------|
D|-----------------|-----------------|-----------------|-----------------|
A|---------11------|---------11------|---------11------|---------11------|
E|-----11----------|-----11----------|-----11----------|-----11----------|

G|-----------------|-----------------|
D|-----------------|-----------------|
A|-----------------|-----------------|
E|-----------------|-----------------|

Chorus 1A

G|-----------------|-----------------|-----------------|-----------------|
D|-----------------|-----------------|-----------------|-----------------|
A|-----------------|-----------------|-----------------|-----------------|
E|-11--------------|-----------------|-7---------------|-----------------|

G|-----------------|-----------------|-----------------|------------------|
D|-----------------|-----------------|-----------------|------------------|
A|-----------------|-----------------|-9---------------|-------------9h11-|
E|-9---------------|-----------------|-----------------|------------------|

G|-----------------|-----------------|-----------------|-----------------|
D|-----------------|-----------------|-----------------|-----------------|
A|-----------------|--------/16------|-14--------------|---------9-------|
E|-11--------------|-----------------|-----------------|-----------------|

G|-----------------|-----------------|-----------------|------------------|
D|-----------------|-----------------|-----------------|------------------|
A|-8---------------|-----------------|-9---------------|-------------9h11-|
E|-----------------|-----------------|-----------------|------------------|

G|-----------------|-----------------|-----------------|-----------------|
D|-----------------|-----------------|-----------------|-----------------|
A|-----------------|-----------------|-----------------|-----------------|
E|-11--------------|-----------------|-7---------------|-----------------|

G|-----------------|-----------------|-----------------|-----------------|
D|-----------------|-----------------|-----------------|-----------------|
A|-----------------|-----------------|-9---------------|-8---------------|
E|-9---------------|-----------------|-----------------|-----------------|

G|-----------------|-----------------|-----------------|-----------------|
D|-----------------|-----------------|-----------------|-----------------|
A|-----------------|-----------------|-14--------------|---------9-------|
E|-11--------------|-----------------|-----------------|-----------------|

G|-----------------|-----------------|-----------------|-----------------|
D|-----------------|-----------------|-----------------|-----------------|
A|-8---------------|-----------------|-----------------|-----------------|
E|-----------------|-----------------|-----------------|-----------------|

Chorus 1B

G|-----------------|-----------------|-----------------|-----------------|
D|-----------------|-----------------|-----------------|-----------------|
A|-----------------|-----------------|-9---------------|-----7---9-------|
E|-5---------------|---------7---9---|-----------------|-----------------|

G|-----------------|-----------------|-----------------|-----------------|
D|-----------------|-----------------|-----------------|-----------------|
A|-11--------------|-----9---11------|/14-\12----------|-----14--12--11--|
E|-----------------|-----------------|-----------------|-----------------|

G|-----------------|-----------------|-----------------|-----------------|
D|-----------------|-----------------|-----------------|-----------------|
A|-9---------------|---------9-------|-11--------------|---------11------|
E|-----------------|-----9-----------|-----------------|-----11----------|

G|-----------------|-----------------|-----------------|-----------------|
D|-----------------|-----------------|-----------------|-----------------|
A|-----------------|-----------------|-9---------------|---------9-------|
E|-5---------------|-7-------9-------|-----------------|-----9-----------|

G|-----------------|-----------------|
D|-----------------|-----------------|
A|-11--------------|---------11------|
E|-----------------|-----11----------|

Verse 2

   Bass comes in at 1:55 

G|-----------------|-----------------|-----------------|-----------------|
D|-----------------|-----------------|-----------------|-----------------|
A|-----------------|-----------------|-9-----------11--|-9---------------|
E|-5---------------|-7-------9-------|-----------------|-----------------|

G|-----------------|-----------------|-----------------|-----------------|
D|-----------------|-----------------|-----------------|-----------------|
A|-11----------14--|-11--------------|-12--------------|-----14--12--11--|
E|-----------------|-----------------|-----------------|-----------------|

G|-----------------|-----------------|-----------------|-----------------|
D|-----------------|-----------------|-----------------|-----------------|
A|-9---------------|-----------------|-----------------|-----------------|
E|-----------------|-----------------|-----------------|-----------------|

Chorus 2A

G|-----------------|-----------------|-----------------|-----------------|
D|-----------------|-----------------|-----------------|-----------------|
A|-----------------|-----------------|-----------------|-----------------|
E|-11--------------|-----------------|-7---------------|-----------------|

G|-----------------|-----------------|-----------------|------------------|
D|-----------------|-----------------|-----------------|------------------|
A|-----------------|-----------------|-9---------------|-------------9h11-|
E|-9---------------|-----------------|-----------------|------------------|

G|-----------------|-----------------|-----------------|-----------------|
D|-----------------|-----------------|-----------------|-----------------|
A|-----------------|--------/16------|-14--------------|---------9-------|
E|-11--------------|-----------------|-----------------|-----------------|

G|-----------------|-----------------|-----------------|-----------------|
D|-----------------|-----------------|-----------------|-----------------|
A|-8---------------|-----------------|-----------------|-----------------|
E|-----------------|-----------------|-9---------------|-----------------|

G|-----------------|-----------------|-----------------|-----------------|
D|-----------------|-----------------|-----------------|-----------------|
A|-----------------|-----------------|-----------------|-----------------|
E|-11--------------|-------------11--|-7---------------|-----------------|

G|-----------------|-----------------|-----------------|-----------------|
D|-----------------|-----------------|-----------------|-----------------|
A|-----------------|-----------------|-9---------------|-----------------|
E|-9---------------|-----------------|-----------------|-----------------|

G|-----------------|-----------------|-----------------|-----------------|
D|-----------------|-----------------|-----------------|-----------------|
A|-----------------|--------/16------|-14--------------|---------9-------|
E|-11--------------|-----------------|-----------------|-----------------|

G|-----------------|-----------------|-----------------|-----------------|
D|-----------------|-----------------|-----------------|-----------------|
A|-8---------------|-----------------|-----------------|-----------------|
E|-----------------|-----------------|-----------------|-----------------|

Chorus 2B
                                                                            __
G|-----------------|-----------------|-----------------|-----------------|    |
D|-----------------|-----------------|-----------------|-----------------|    |
A|-----------------|-12--14--12--11--|-9--11--9--------|-----------------|    |
E|-5---------------|-----------------|-----------------|-----------------|    |
                                                                              |
G|-----------------|-----------------|-----------------|-----------------|    |
D|-----------------|-----------------|-----------------|-----------------|    |
A|-11--12--11------|-----------------|-----------------|-12--14--12--11--|    | x4
E|-----------------|-----------------|-5---------------|-----------------|    |
                                                                              |
G|-----------------|-----------------|-----------------|-----------------|    |
D|-----------------|-----------------|-----------------|-----------------|    |
A|-9--11--9--------|-----------------|-----------------|-7---6-----------|    |
E|-----------------|-----------------|-4---------------|---------9---7---|  __|

G|-----------------|-----------------|-----------------|-----------------|
D|-----------------|-----------------|-----------------|-----------------|
A|-----------------|-12--14--12--11--|-9--11--9--------|-----------------|
E|-5---------------|-----------------|-----------------|-----------------|

G|-----------------|-----------------|-----------------|-----------------|
D|-----------------|-----------------|-----------------|-----------------|
A|-11--12--11------|-----------------|-----------------|-12--14--12--11--|
E|-----------------|-----------------|-5------5--------|-----------------|

G|-----------------|-----------------|-----------------|-----------------|
D|-----------------|-----------------|-----------------|-----------------|
A|-9--11--9--------|-----------------|-----------------|-----------------|
E|-----------------|-----------------|-4------4--------|-4-------4-------|

G|-----------------|-----------------|-----------------|-----------------|
D|-----------------|-----------------|-----------------|-----------------|
A|-----------------|-12--14--12--11--|-9--11--9--------|-----------------|
E|-5---------------|-----------------|-----------------|-----------------|

G|-----------------|-----------------|-----------------|-----------------|
D|-----------------|-----------------|-----------------|-----------------|
A|-11--12--11------|-----------------|-----------------|-12--14--12--11--|
E|-----------------|-----------------|-5---------------|-----------------|

G|-----------------|-----------------|-----------------|-----------------|
D|-----------------|-----------------|-----------------|-----------------|
A|-9--11--9--------|-----------------|-----------------|-7---6-----------|
E|-----------------|-----------------|-4---------------|---------9---7---|

Bridge

G|-----------------|-----------------|-----------------|-----------------|
D|-----------------|-----------------|-----------------|-----------------|
A|-----------------|-----------------|-----------------|-----------------| x19
E|-5------5--------|-5------5--------|-5------5--------|-5------5--------|

G|-----------------|-----------------|-----------------|-----------------|
D|-----------------|-----------------|-----------------|-----------------|
A|-----------------|-----------------|-----------------|-----------------|
E|-5------5--------|-5------5--------|-5------5--------|-5---------------|

Chorus 3

G|-----------------|-----------------|-----------------|-----------------|
D|-----------------|-----------------|-----------------|-----------------|
A|-----------------|-12--14--12--11--|-9--11--9--------|-----------------|
E|-5---------------|-----------------|-----------------|-----------------|

G|-----------------|-----------------|-----------------|-----------------|
D|-----------------|-----------------|-----------------|-----------------|
A|-11--12--11------|-----------------|-----------------|-12--14--12--11--|
E|-----------------|-----------------|-5---------------|-----------------|

G|-----------------|-----------------|-----------------|-----------------|
D|-----------------|-----------------|-----------------|-----------------|
A|-9--11--9--------|-----------------|-----------------|-7---6-----------|
E|-----------------|-----------------|-4---------------|---------9---7---|

G|-----------------|-----------------|-----------------|-----------------|
D|-----------------|-----------------|-----------------|-----------------|
A|-----------------|-12--14--12--11--|-9--11--9--------|-----------------|
E|-5---------------|-----------------|-----------------|-----------------|

G|-----------------|-----------------|-----------------|-----------------|
D|-----------------|-----------------|-----------------|-----------------|
A|-11--12--11------|-----------------|-----------------|-12--14--12--11--|
E|-----------------|-----------------|-5---------------|-----------------|

G|-----------------|-----------------|-----------------|-----------------|
D|-----------------|-----------------|-----------------|-----------------|
A|-9--11--9--------|-----------------|-----------------|-7---6-----------|
E|-----------------|-----------------|-4---------------|-----------------|

Chorus 4
                                                                            __
G|-----------------|-----------------|-----------------|-----------------|    |
D|-----------------|-----------------|-----------------|-----------------|    |
A|-----------------|-12--14--12--11--|-9--11--9--------|-----------------|    |
E|-5---------------|-----------------|-----------------|-----------------|    |
                                                                              |
G|-----------------|-----------------|-----------------|-----------------|    |
D|-----------------|-----------------|-----------------|-----------------|    |
A|-11--12--11------|-----------------|-----------------|-12--14--12--11--|    | x3
E|-----------------|-----------------|-5---------------|-----------------|    |
                                                                              |
G|-----------------|-----------------|-----------------|-----------------|    |
D|-----------------|-----------------|-----------------|-----------------|    |
A|-9--11--9--------|-----------------|-----------------|-7---6-----------|    |
E|-----------------|-----------------|-4---------------|---------9---7---|  __|

G|-----------------|-----------------|-----------------|-----------------|
D|-----------------|-----------------|-----------------|-----------------|
A|-----------------|-12--14--12--11--|-9--11--9--------|-----------------|
E|-5---------------|-----------------|-----------------|-----------------|

G|-----------------|-----------------|-----------------|-----------------|
D|-----------------|-----------------|-----------------|-----------------|
A|-11--12--11------|-----------------|-----------------|-12--14--12--11--|
E|-----------------|-----------------|-5---------------|-----------------|

G|-----------------|-----------------|-----------------|-----------------|
D|-----------------|-----------------|-----------------|-----------------|
A|-9--11--9--------|-----------------|-----------------|-7---6-----------|
E|-----------------|-----------------|-4---------------|-----------------|

Break

G|-----------------|-----------------|-----------------|-----------------|
D|-----------------|-----------------|-----------------|-----------------|
A|-----------------|-----------------|-----------------|-----------------|
E|-5---5-----------|-----------------|-2---2-----------|-----------------|

G|-----------------|-----------------|-----------------|-----------------|
D|-----------------|-----------------|-----------------|-----------------|
A|-----------------|-----------------|-----------------|-----------------|
E|-4---4-----------|-----------------|-5---5-----------|-----------------|

G|-----------------|-----------------|-----------------|-----------------|
D|-----------------|-----------------|-----------------|-----------------|
A|-----------------|-----------------|-----------------|-----------------|
E|-2---2-----------|-----------------|-4---4-----------|-----------------|

G|-----------------|-----------------|-----------------|-----------------|
D|-----------------|-----------------|-----------------|-----------------|
A|-----------------|-----------------|-----------------|-----------------|
E|-5---5-----------|-----------------|-2---2-----------|-----------------|

G|-----------------|-----------------|-----------------|-----------------|
D|-----------------|-----------------|-----------------|-----------------|
A|-----------------|-----------------|-----------------|-----------------|
E|-----4-----------|-----------------|-5---5-----------|-----------------|

G|-----------------|-----------------|-----------------|-----------------|
D|-----------------|-----------------|-----------------|-----------------|
A|-----------------|-----------------|-----------------|-----------------|
E|-----2-----------|-----------------|-----4-----------|---------12\-----|

Chorus 5

G|-----------------|-----------------|-----------------|-----------------|
D|-----------------|-----------------|-----------------|-----------------|
A|-----------------|-12--14--12--11--|-9--11--9--------|-----------------|
E|-5---------------|-----------------|-----------------|-----------------|

G|-----------------|-----------------|-----------------|-----------------|
D|-----------------|-----------------|-----------------|-----------------|
A|-11--12--11------|-----------------|-----------------|-12--14--12--11--|
E|-----------------|-----------------|-5---------------|-----------------|

G|-----------------|-----------------|-----------------|-----------------|
D|-----------------|-----------------|-----------------|-----------------|
A|-9--11--9--------|-----------------|-----------------|-7---6-----------|
E|-----------------|-----------------|-4---------------|---------9---7---|

G|-----------------|-----------------|-----------------|-----------------|
D|-----------------|-----------------|-----------------|-----------------|
A|-----------------|-12--14--12--11--|-9--11--9--------|-----------------|
E|-5---------------|-----------------|-----------------|-----------------|

G|-----------------|-----------------|-----------------|-----------------|
D|-----------------|-----------------|-----------------|-----------------|
A|-11--12--11------|-----------------|-----------------|-12--14--12--11--|
E|-----------------|-----------------|-5---------------|-----------------|

G|-----------------|-----------------|-----------------|-----------------|
D|-----------------|-----------------|-----------------|-----------------|
A|-9--11--9--------|-----------------|-7---------------|-7-------6-------|
E|-----------------|-----------------|-----------------|------------7----|

G|-----------------|-----------------|-----------------|-----------------|
D|-----------------|-----------------|-----------------|-----------------|
A|-----------------|-12--14--12--11--|-9--11--9--------|-----------------|
E|-5---------------|-----------------|-----------------|-----------------|

G|-----------------|-----------------|-----------------|-----------------|
D|-----------------|-----------------|-----------------|-----------------|
A|-----------------|-7---6-----------|-----------------|-12--14--12--11--|
E|-4---------------|---------9---7---|-5---------------|-----------------|

G|-----------------|-----------------|-----------------|-----------------|
D|-----------------|-----------------|-----------------|-----------------|
A|-9--11--9--------|-----------------|-7---------------|-7---6-----------|
E|-----------------|-----------------|-----------------|---------9---7---|

Outro

G|-----------------|-----------------|-----------------|-----------------|
D|---------9-------|-9---7-------7---|---------6-------|-6---4-------6---|
A|-----------------|-----------------|-----------------|-----------------|
E|-5---5-----------|-----------------|-2---2-----------|-----------------|

G|-----------------|-----------------|-----------------|-----------------|
D|---------7-------|-7---6-------7---|---------9-------|-9---7-------7---|
A|-----------------|-----------------|-----------------|-----------------|
E|-4---4-----------|-----------------|-5---5-----------|-----------------|

G|-----------------|-----------------|-----------------|-----------------|
D|---------6-------|-6---4-------4---|---------7-------|-7---6-------7---|
A|-----------------|-----------------|-----------------|-----------------|
E|-2---2-----------|-----------------|-4---4-----------|-----------------|

G|-----------------|-----------------|-----------------|-----------------|
D|---------9-------|-9---7-------7---|---------11------|-11--9-------6---|
A|-----------------|-----------------|-----------------|-----------------|
E|-5---5-----------|-----------------|-2---2-----------|-----------------|

G|-----------------|-----------------|-----------------|-----------------|
D|---------7-------|-7---6-------7---|---------9-------|-9---7-------7---|
A|-----------------|-----------------|-----------------|-----------------|
E|-4---4-----------|-----------------|-5---5-----------|-----------------|

G|-----------------|-----------------|-----------------|-----------------|
D|---------6-------|-6---4-------6---|---------7-------|-6-----------6---|
A|-----------------|-----------------|-----------------|-----------------|
E|-----2-----------|-----------------|-----4-----------|-----------------|

G|-----------------|-----------------|-----------------|-----------------|
D|---------9-------|-9---7-------7---|---------6-------|-6---4-------6---|
A|-----------------|-----------------|-----------------|-----------------|
E|-5---5-----------|-----------------|-2---2-----------|-----------------|

G|-----------------|-----------------|-----------------|-----------------|
D|---------7-------|-7---6-------7---|---------9-------|-9---7-------7---|
A|-----------------|-----------------|-----------------|-----------------|
E|-4---4-----------|-----------------|-5---5-----------|-----------------|

G|-----------------|-----------------|-----------------|-----------------|
D|---------6-------|-6---4-------4---|---------7-------|-7---6-------7---|
A|-----------------|-----------------|-----------------|-----------------|
E|-2---2-----------|-----------------|-4---4-----------|-----------------|
reproducciones 167
Composição: Kevin Parker Colaboración y revision:
  • Vanna

0 comentarios

mostrar más comentarios

¿Conseguiste tocar?

0 tocaron 1 aún no

¡Graba un vídeo tocando Let It Happen y envianoslo!

00:00 / 00:00
outros vídeos desta música
repetir qualidade Automático
Outros vídeos desta música
00:00 / 00:00
Automático
OK