Cifra Club

Mind Mischief

Tame Impala

Tablatura: Principal (guitarra)
Tom: F
[Intro]

(Guitar)

e|--------------------------------------|  
B|---------6h7--6.-4.-6.--2h4p3---------|   
G|-3--4\---6h8--6.-4.-6.--3h4p3--3------|   
D|-4--6\-------------------------4------|   
A|--------------------------------------|   
E|--------------------------------------|   

e|--------------------------------------|   
B|---------6h7--6.-4.-6.--2h4p3---------|   
G|-3--6\---6h8--6.-4.-6.--3h4p3--3------|   
D|-4--6\-------------------------4------|   
A|--------------------------------------|   
E|--------------------------------------|   

e|--------------------------------------|  
B|---------6h7--6.-4.-6.--2h4p3---------|   
G|-3--4\---6h8--6.-4.-6.--3h4p3--3------|   
D|-4--6\-------------------------4------|   
A|--------------------------------------|   
E|--------------------------------------|   

e|--------------------------------------|   
B|---------6h7--6.-4.-6.--2h4p3---------|   
G|-3--6\---6h8--6.-4.-6.--3h4p3--3------|   
D|-4--6\-------------------------4------|   
A|--------------------------------------|   
E|--------------------------------------| 
  
G#m                  F#
Feels like my life is ready to blow
G#m                  F#
Me and my love we'll take it slow
G#m                  F#
I hope she knows that I'll love her long
G#m                  F#
I just don't know where the hell I belong

G#m                  F#
How optimism led me astray
G#m                  F#
Two hundred things I took the wrong way
G#m                  F#
But I saw her love gauge running low
G#m                  F#
I tried to fill but it overflowed

G#m                  F#
Feels like my life is ready to blow
G#m                  F#
Me and my love we'll take it slow
G#m                  F#
I hope she knows that I'll love her long
G#m                  F#
I just don't know where the hell I belong

[Solo]

e|--------------------------------------------|
B|-6h7-7--7--7--6--6--6--4--4--4--4\2--2------|
G|--------------------------------------------| x4
D|--------------------------------------------|
A|--------------------------------------------|
E|--------------------------------------------|

G#m                  F#
She remembers my name
G#m                  F#
Could be blown way out
G#m                  F#
It's all going to change
G#m                  F#
She remembers my name

D#m   C#         D#m         C#         
But she was only messing around,
D#m   C#         D#m         C#   
Please, no more playing with my heart
D#m   C#         D#m         C#   
Ooh, go with Mr. Right just for once
D#m   C#         D#m         C#   
Oooh, no more mischief with my mind

D#m   C#         D#m         C#   
Then it all just came out
D#m   C#         D#m         C#   
Guess I'll hold it in next time

G#m                  F#
No more getting it wrong
G#m                  F#
I'll be frozen here on
G#m                  F#
If forever we'll see,
G#m                  F#
But no more guessing for me

D#m   C#         D#m         C# 
Oh, I was just so sure of everything
D#m   C#         D#m         C# 
Ooh, that's what you get for dreaming aloud
D#m   C#         D#m         C# 
Oh, the day that words are clearer to me
reproducciones 1.274
Acordes para:
    Composição: Kevin Parker Colaboración y revision:
    • Michael Goldbeck

    0 comentarios

    mostrar más comentarios

    ¿Conseguiste tocar?

    1 tocaron 0 aún no

    ¡Graba un vídeo tocando Mind Mischief y envianoslo!

    00:00 / 00:00
    outros vídeos desta música
    repetir qualidade Automático
    Outros vídeos desta música
    00:00 / 00:00
    Automático
    OK