Cifra Club

The Less I Know The Better

Tame Impala

Cifrado: Principal (guitarra y guitarra eléctrica)
Já pensou em usar uma coleção de roupas do Cifra Club? Responda as perguntas abaixo e nos ajude nessa missão! →
tono: D
[Intro] C#m  B  E  C#m
        C#m  B  E  C#m
        C#m  B  E  C#m

E|------------------------------------------|
B|------------------------------------------|
G|-6/8-6------------------------------------|
D|-----9-6----------------------------------|
A|------------------------------------------|
E|----------------------9--9-9--------------|

E|------------------------------------------|
B|------------------------------------------|
G|-6/8-6-----6/8--6/8-6---------------------|
D|-------------------------9--6-------------|
A|--------4----------------------7--7-7-----|
E|------------------------------------------|

E|------------------------------------------|
B|------------------------------------------|
G|-9/11-9--------6/8-6----------------------|
D|------------------------9-6---------------|
A|---------7--------------------------------|
E|----------------------------9--9-9--------|

        C#m
Someone said they left together
B     E
I ran out the door to get her
B       C#m                    C#m9
She was holding hands with Trevor
B       E
Not the greatest feeling ever
B       C#m
I said pull yourself together
B          E
You should try your luck with heather
B      C#m                     C#m9
Then I thought they slept together
B       E                       B  C#m  B
Oh, the less I know the better
    E
The less I know the better

      E               C#m          E7
Oh my love, can't you see yourself by my side?
      E                           C#m         E7         B
No surprise, when you're on his shoulder like every night
      E               C#m             D7
Oh my love, can't you see that you're on my mind?
         E                            C#m     E7
Don't suppose we could convince your lover to change his mind
       C#m    B  E  B
So goodbye

          C#m
She said "It's not now or never
B        E
Wait ten years, we'll be together"
B       C#m                 C#m9
I said "Better late than never
B          E                      B  C#m  B
Just don't make me wait forever"
      E                     B  C#m  B
Don't make me wait forever
      E
Don't make me wait forever

      E               C#m         D7
Oh my love, can't you see yourself by my side?
         E                             C#m    D7
Don't suppose you could convince your lover to change his mind
E                     G#m
I was doing fine without you
  C#m                    A          A9
Till I saw your face, now I can't erase
E                      G#m
Giving in to all his bullshit
  C#m                    A              A9
Is this what you want, is this who you are?
E                     G#m
I was doing fine without you
  C#m                   A            A9
Till I saw your eyes turn away from mine
E                           G#m
Oh sweet talking where he wants you
        C#m                A             A9  E  G#m
Said come on Superman, say your stupid line
        C#m                A             A9  E  G#m
Said come on Superman, say your stupid line
        C#m                A             A9
Said come on Superman, say your stupid line

[Final] E  G#m  C#m  A  A9
Composición de Kevin Parker
8.005 vistas
  • Simplificar cifrado
    • ½ Tono
    • A
    • Bb
    • B
    • C
    • Db
    • D
    • Eb
    • E
    • F
    • F#
    • G
    • Ab
  • Agregar a la lista

    0 comentarios

    Ver todos los comentarios

    ¿Lograste tocar?

    20 Tocaron 8 Aún no

    ¡Graba un video tocando The Less I Know The Better y envíanoslo!

    00:00 / 00:00
    Outros vídeos desta música
    Repetir Calidad Automático
    Outros vídeos desta música
    00:00 / 00:00
    Automático
    OK