Cifra Club

The Moment

Tame Impala

Tab de bajo: Principal
[0:00]
G|------------------------------------------------------|
D|--------------------------------------------4---------|
A|----------------5----7--------------------------------|
E|--2----3–---------------------2----3-------------3----|

G|-----------------------------------------------------------|
D|--4--4-4/7-5--55--4h5p4--------4--4-4/7-5--55--4h5p4-------|
A|------------------------5--2-------------------------5--2--|
E|--–--------------------------------------------------------|
_
[0:17]
G|---------------------------------------------------------|
D|-----------------------------4--4-4/7-5----4--4-4/7-5----|
A|----------------5----7-----------------------------------|
E|--2----3–------------------------------------------------|

G|----------------------------------------------------------|
D|-----------------------------4--4-4/7-5-------4h5p4-------|
A|----------------5----7------------------------------5--2--|
E|--2----3–-------------------------------------------------|

G|---------------------------------------------------------|
D|-----------------------------4--4-4/7-5-55-4--4-4/7-5----|
A|----------------5----7-----------------------------------|
E|--2----3–------------------------------------------------|

G|---------------------------------------------------------|
D|-----------------------------4--4-4/7-5---55-------------|
A|----------------5----7-----------------------------------|
E|--2----3–------------------------------------------------|
_
[0:49]
G|-----------------------------------------------------------|
D|--4--4-4/7-5------4h5p4--------4--4-4/7-5------4h5p4-------|
A|------------------------5--2-------------------------5--2--|
E|--–--------------------------------------------------------|

G|----------------------------------------------------------| |---------|
D|--4--4-4/7-5----4--4-4/7-5----4--4-4/7-5------4h5p4-------| |---------|
A|----------------------------------------------------5--2--| |---------|
E|--–-------------------------------------------------------| |--3~-----|
_
[1:07]
G|---------------------------------------------------------|
D|---------------------------------------------------------|
A|----------------5----7-----------------------------------|
E|--2----3–------------------------------------------------|

G|---------------------------------------------------------|
D|-----------------------------4--4-4/7-5---55-------------|
A|----------------5----7-----------------------------------|
E|--2----3–------------------------------------------------|
_
[1:23]
G|-----------------------------------------------------------|
D|--4--4-4/7-5------4h5p4--------4--4-4/7-5------4h5p4-------|
A|------------------------5--2-------------------------5--2--|
E|--–--------------------------------------------------------|

G|----------------------------------------------------------|
D|--4--4-4/7-5----4--4-4/7-5--------------------------------|
A|----------------------------------------------------------|
E|--–-------------------------------------------------------|
_
[1:40]
G|-------7-------4------4-------6--------------------------------| -X3-
D|-----7-------4------4-------6--------4-------7------7-------9--|
A|--5------2-------2------4----------4-------7------7-------9----|
E|--–-----------------------------2------5-------5------7--------|

G|-------7-------4------4-------6--------------------------------|
D|-----7-------4------4-------6----------------------------------|
A|--5------2-------2------4--------------------------------------|
E|--–--------------------------------2----3--------2----3--------|
_
[2:12]
low synth takes over bass for a bit here
_
[3:08]
G|-------7-------4------4-------6--------------------------------| -X8-
D|-----7-------4------4-------6--------4-------7------7-------9--|
A|--5------2-------2------4----------4-------7------7-------9----|
E|--–-----------------------------2------5-------5------7--------|
reproducciones 4
Colaboración y revision:
  • Vanna

0 comentarios

mostrar más comentarios

¿Conseguiste tocar?

0 tocaron 0 aún no

¡Graba un vídeo tocando The Moment y envianoslo!

00:00 / 00:00
outros vídeos desta música
repetir qualidade Automático
Outros vídeos desta música
00:00 / 00:00
Automático
OK