Cifra Club

Yes, I'm Changing

Tame Impala

Tablatura: Principal (guitarra)
Tom: C
Intro chords
E|--0-------------------0------------------|
B|--1----3----0----1----1-----1------------|
G|--0----0----0----0----2-----0------------|
D|--2----2----2----2----2-----2------------|
A|--3----3----3----3----0-----3------------|
E|-----------------------------------------|



alternatively you could play with capo on 5th fret making
the major seventh chord sound closer to the actual song
by hitting the higher b note on 7th fret of high e string

capo 5th fret
E|--x---------2----3----0------------------|
B|--0----0----0----0----0-----0------------|
G|--0----2----0----0----0-----0------------|
D|--0----0---------0----2-----0------------|
A|--2----x----x----2----2-----2------------|
E|--3----3----3----3----0-----3------------|


[Verse]

C
   Cadd9
I was raging, it was late
Cmaj7                  C
In the world my demons cultivate
Am                                             C
I felt the strangest emotion but it wasnt hate, for once

C                 Cadd9
Yes Im changing, yes I'm gone
Cmaj7                 C
Yes Im older, yes I'm moving on
          Am                                                C
And if you dont think it's a crime you can come along, with me

C               Cadd9
Life is moving, can't you see
Cmaj7                      C
There's no future left for you and me
      Am
I was holding and I was searching endlessly
    C                 G                       C
But baby, now theres nothing left that I can do so
Cadd9       Cmaj7   C
So don't be blue
         Am                               C
There is another future waiting there for you

C                   Cadd9
I saw it different, I must admit
Cmaj7                         C
I caught a glimpse, I'm going after it
         Am                                            C
They say people never change, but thats bullshit, they do

C                 Cadd9
Yes Im changing, cant stop it now
Cmaj7                       C
And even if I wanted I wouldnt know how
        Am                                    C
Another version of myself I think I found, at last

C                  Cadd9
And I cant always hide away
Cmaj7                   C
Curse indulgence and despise the fame
          Am
Theres a world out there and its calling my name
         C              G
And its calling yours, girl its calling yours too

C   F       Fm
Its calling yours too, 
C   F       Fm
its calling yours too,
C   F       Fm
its calling yours too
C   F       Fm
Its calling out for you

[Outro] (you can hear it most clearly at 3:14)
C F Fm

Played like this
E|---------------------------------------------------------------------------|
B|--0h1-0h1-0h1-0h1---0---0---0---0------------------------------------------|
G|--0---0---0---0---2---2---1---1--------------------------------------------|
D|------------------3---3---3---3--------------------------------------------|
A|--3---3---3---3---3---3---3---3--------------------------------------------|
E|---------------------------------------------------------------------------|


C F       Fm         C
Arise and walk, come through
F         Fm         C
Someone beyond that door
   F       Fm      C
is calling out for you
 F        Fm         C
Arise and walk, come through
    F       Fm      C
Its calling out for you
  F       Fm         C
Arise and walk, come through
F         Fm        C
Someone beyond that door
F          Fm      C
is calling out for you
reproducciones 846
Acordes para:
    Colaboración y revision:
    • Vanna

    0 comentarios

    mostrar más comentarios

    ¿Conseguiste tocar?

    2 tocaron 0 aún no

    ¡Graba un vídeo tocando Yes, I'm Changing y envianoslo!

    00:00 / 00:00
    outros vídeos desta música
    repetir qualidade Automático
    Outros vídeos desta música
    00:00 / 00:00
    Automático
    OK