Cifra Club

Officially Missing You

Tamia

Cifrado: Principal (guitarra y guitarra eléctrica)
tono: G
OFFICIALLY MISSING YOU

*

standard tuning: (EADGBE)

Intro:

E---3-3----------|---3-3----0---|
B---3-3-3----2-4-|---3-3----3-0-|
G-------0----2-4-|------------0-|
D----------------|--------------|
A--------------2-|--------------|
E-3---3----2-----|-0---0--3---3-|

E--3--0-----2h3-|---3-3----3-3-
B--3--0-----3-3-|---1-1----3-3-
G---------------|--------------
D---------------|--------0-----
A-3--3---32-----|-0---0--------
E-------------0-|--------------

Verse:

E---3-3----------|---3-3----0---|
B---3-3-3----2-4-|---3-3----3-0-|
G-------0----2-4-|------------0-|
D----------------|--------------|
A--------------2-|--------------|
E-3---3----2-----|-0---0--3---3-|

E--3--0-----2h3-|---3-3----3-3-
B--3--0-----3-3-|---1-1----3-3-
G---------------|--------------
D---------------|--------0-----
A-3--3---32-----|-0---0--------
E-------------0-|--------------

Refrain:

E---3-3--3-2---3-3-------|
B---3-3--3-3---3-3---3-0-|
G--------------------0-0-|
D------------------------|
A-3---3-2--2-------------|
E-------------0--0--3--3-|

E--3--0-----2h3-|---3-3----3-3-
B--3--0-----3-3-|---1-1----3-3-
G---------------|--------------
D---------------|--------0-----
A-3--3---32-----|-0---0--------
E-------------0-|--------------

Bridge:

E-3-------|-------------
B-1--0--3-|-3-3-3--3\0--
G-0--0--0-|-0-0-0--0\0--
D-2--2--0-|-2-0-0--0\2--
A-0--2--2-|-3-2-2--2\2--
E----0--3-|-----3--3\0--

E------------|-3--3-3--
B-1-3--1\-/3-|-3--3-3--
G-0-0--0\0/0-|-0-------
D-2-0--2\0/2-|-2--0-0--
A-0-2--0\2/2-|-3-------
E--------3---|---------

=====()w&_17=====
00:00 / 00:00
Otros videos de esta canción
Repetir
Otros videos de esta canción
Composición de Seven Aurelius
203 exhibiciones
    • ½ Tono
    • A
    • Bb
    • B
    • C
    • Db
    • D
    • Eb
    • E
    • F
    • F#
    • G
    • Ab
  • Agregar a la lista
    00:00 / 00:00
    OK