Cifra Club

Aprenda

Chamo-te A Razao

Tara Perdida

Tablatura: Principal (guitarra)
Tom: D
Tabbed by: SonnePT
Tuning: Standard (E A D G B e)
_______________________________

Key:
~  = Let ring
PM = Palm Mute
/  = slide down to up
() = Ghost note

> Intro
Part1
Guitar 1
e|------------------------------------------------------------------|
B|------------------------------------------------------------------|
G|------------------------------------------------------------------|
D|--7--7-7-7-7-7/5--5-5-5-5-5/12--12-12-12-12-12-12-12-12-12-12-12--|
A|--7--7-7-7-7-7/5--5-5-5-5-5/12--12-12-12-12-12-12-12-12-12-12-12--|
E|--5--5-5-5-5-5/3--3-3-3-3-3/10--10-10-10-10-10-10-10-10-10-10-10--|
PM     . . . .      . . . .       .  .  .  .     .  .     .  .

Guitar 2 (on the second time)
e|------------------|
B|------------------|
G|------------------|
D|--7----------7-5--|
A|--7----------7-5--|
E|--5----------5-3--|

Part2
Guitar 1: Same notes and rythm, but without palm mute
e|---------------------------------------------------------------|
B|---------------------------------------------------------------|
G|---------------------------------------------------------------|
D|--7-7-7-7-7-7-5-5-5-5-5-5-12-12-12-12-12-12-12-12-12-12-12-12--|
A|--7-7-7-7-7-7-5-5-5-5-5-5-12-12-12-12-12-12-12-12-12-12-12-12--|
E|--5-5-5-5-5-5-3-3-3-3-3-3-10-10-10-10-10-10-10-10-10-10-10-10--|


Guitar 2
e|---------------------------|
B|---------------------------|
G|---------------------------|
D|---------------------------| x2
A|--0--5--7--7/9--7--0----7--|
E|---------------------------|

e|--------------------|
B|--------------------|
G|--------------------|
D|--------------------| x2
A|--0--4--5--4--2--0--|
E|--------------------|

Both guitars
e|------|                     e|-------|
B|------|                     B|-------|
G|--0~--|                     G|-------|
D|--0~--| let ring, then play D|--7-7--|
A|------|                     A|--7-7--|
E|------|                     E|--5-5--|

> Verse
Both guitars (2 times)
e|--------------------------------------------------------------------------------------------------|
B|--------------------------------------------------------------------------------------------------|
G|--------------------------------------------------------------------------------------------------|
D|--7-7-7-7-7-7-7-7-7--7-5--5-5-5-5-5-5-5-5--5-12--12-12-12-12-12-12-12-12-12-12-12-12-12-12-12-12--|
A|--7-7-7-7-7-7-7-7-7--7-5--5-5-5-5-5-5-5-5--5-12--12-12-12-12-12-12-12-12-12-12-12-12-12-12-12-12--|
E|--5-5-5-5-5-5-5-5-5--5-3--3-3-3-3-3-3-3-3--3-10--10-10-10-10-10-10-10-10-10-10-10-10-10-10-10-10--|
PM  .................       . .   . .   . .        .  .     .  .     .  .

> Pre-Chorus
Both guitars
e|-------------------------------------------------------------------------------------|
B|-------------------------------------------------------------------------------------|
G|--------------------------------------------------7-7-7-7-7-7-7-7-7-7-7-7-7-7-7-7-7--|
D|--9-9-9-9-9-9-9-9-7-7-7-7-7-7-7-7-5-5-5-5-5-5-5-5-7-7-7-7-7-7-7-7-7-7-7-7-7-7-7-7-7--|
A|--9-9-9-9-9-9-9-9-7-7-7-7-7-7-7-7-5-5-5-5-5-5-5-5-5-5-5-5-5-5-5-5-5-5-5-5-5-5-5-5-5--|
E|--7-7-7-7-7-7-7-7-5-5-5-5-5-5-5-5-3-3-3-3-3-3-3-3------------------------------------|

> Intro part2 (but guitar 2 plays only 1 time each riff)
> Verse (guitar 2 plays other thing on second time, but it's hard to ear)
> Pre-Chorus

> Chorus
Both guitars
e|-------------------------------------------------------------------------|
B|-------------------------------------------------------------------------|
G|------------------9-9-9-9-9-9-9-9-7-7-7-7-7-7-7-7-7-7-7-7-7-7-7-7-7-7-e--|
D|--7-7-7-7-7-7-7-7-9-9-9-9-9-9-9-9-7-7-7-7-7-7-7-7-7-7-7-7-7-7-7-7-7-7-t--| x4
A|--7-7-7-7-7-7-7-7-7-7-7-7-7-7-7-7-5-5-5-5-5-5-5-5-5-5-5-5-5-5-5-5-5-5-c--|
E|--5-5-5-5-5-5-5-5--------------------------------------------------------|

> Break
Both guitars
e|---------------------------------------|
B|---------------------------------------|
G|---------------------------------------|
D|--7~-------7-5~------5--4~-------4-2~--|
A|--7~-------7-5~------5--4~-------4-2~--|
E|--5~-------5-3~------3--2~-------2-0~--|

e|-------------------------------------------------------------------------------------------|
B|-------------------------------------------------------------------------------------------|
G|-------------------------------------------------------------------------------------------|
D|--7-----7-----7-----7/5-----5-----5-----5/4-----4-----4-----4-2~-(2)----2-2-2-2-2-2-2-2-2--|
A|--7-----7-----7-----7/5-----5-----5-----5/4-----4-----4-----4-2~-(2)----2-2-2-2-2-2-2-2-2--|
E|--5-5-5-5-5-5-5-5-5-5/3-3-3-3-3-3-3-3-3-3/2-2-2-2-2-2-2-2-2-2-0~-(0)----0-0-0-0-0-0-0-0-0--|
PM    . .   . .   . .     . .   . .   . .     . .   . .   . .             ...............

> Chorus
Guitar 1
e|-------------------------------------------------------------------------|
B|-------------------------------------------------------------------------|
G|------------------9-9-9-9-9-9-9-9-7-7-7-7-7-7-7-7-7-7-7-7-7-7-7-7-7-7-e--|
D|--7-7-7-7-7-7-7-7-9-9-9-9-9-9-9-9-7-7-7-7-7-7-7-7-7-7-7-7-7-7-7-7-7-7-t--| x4
A|--7-7-7-7-7-7-7-7-7-7-7-7-7-7-7-7-5-5-5-5-5-5-5-5-5-5-5-5-5-5-5-5-5-5-c--|
E|--5-5-5-5-5-5-5-5--------------------------------------------------------|

Guitar 2
e|-------------------------|
B|-------------------------|
G|-------------------------|
D|-------------------------|
A|--7----5----4----2--0-2--|
E|-------------------------|


> Outro
e|------------------|
B|------------------|
G|------------------|
D|--7~----------5~--|
A|--7~----------5~--|
E|--5~----------3~--|
29 reproducciones
    • ½ Tom
    • A
    • Bb
    • B
    • C
    • Db
    • D
    • Eb
    • E
    • F
    • F#
    • G
    • Ab
  • Adicionar à lista

    0 comentarios

    Mostrar mais comentários

    ¿Conseguiste tocar?

    0 Tocaron 0 Ainda não

    Grave um vídeo tocando Chamo-te A Razao e mande pra gente!

    00:00 / 00:00
    outros vídeos desta música
    repetir qualidade Automático
    Outros vídeos desta música
    00:00 / 00:00
    Automático

    Cifra Club Pro

    Aproveite o Cifra Club com benefícios exclusivos e sem anúncios
    7 dias grátis
    Cifra Club Pro
    Aproveite o Cifra Club com benefícios exclusivos e sem anúncios
    7 dias grátis
    OK