Cifra Club

Lisboa

Tara Perdida

Cifrado: Principal (guitarra y guitarra eléctrica)
Quer fazer aulas de música com a gente? Responda essas perguntas
e nos ajude nesse projeto! →
tono: G
[Intro] Em  C  G 

Em         C               G
Olá Lisboa, pela primeira vez
Em         C               G
Olá Lisboa, pela primeira vez

             Am
Lembro-me de ti
                              C
Como se fosse um regresso a casa
                   G
As ruas escuras à noite
                       Em
O medo de quem quer voltar

            Am
E passo por ti
                         C
Condenado a sentir um vazio
                     G
Na hora de te abandonar
                            Em
A lembrança de quem quer ficar

                    Am
A cidade por descobrir
               C
O adeus vou partir

Em    C            G
Lisboa és só tu e eu
Em    C            G
Lisboa és só tu e eu

              Am
Confesso-me a ti
                         C
Oh cidade de noite encantada
                 G
Lembras-me a vontade
              Em
Hoje eu vou ficar

            Am
Agarro-me a ti
                           C
Confrontando saudade que sinto
                        G
A hora está-se a aproximar
                            Em
As memórias de quem quer voltar
                         Am
Um segredo que vou descobrir
                C
O adeus vou partir.

Em    C            G
Lisboa és só tu e eu
Em    C            G
Lisboa és só tu e eu

[Solo] Em  C  G

            Am
E passo por ti
                C
Condenado ao vazio
                     G
A ânsia de querer voltar
                         Em
O adeus que não te vou dizer

           Am
E espero aqui
                 C
Com um ar controlado
                          G
A história de ter um passado
                    Em
A idade de te conhecer

                   Am
A cidade por descobrir
                C
O adeus vou partir

Em    C             G
Lisboa, és só tu e eu
Em    C             G
Lisboa, és só tu e eu

[Solo 2]

E|--/12~---12-12-10---12-10------------------------------10--12~|
B|--------------------------12--------10h12--10-------12--------|
G|-------------------------------9h12-----------12--9-----------|
D|--------------------------------------------------------------|
A|--------------------------------------------------------------|
E|--------------------------------------------------------------|

E|--12--12--12/15--14--15--14-----------------------------------|
B|------------------------------15--15--15--15------------------|
G|--------------------------------------------------------------|
D|--------------------------------------------------------------|
A|--------------------------------------------------------------|
E|--------------------------------------------------------------|

E|--------------------------------------------------------------|
B|--13--12--13--12--10------10------10--------------------------|
G|----------------------12------12------12--11------------------|
D|----------------------------------------------10~-------------|
A|--------------------------------------------------------------|
E|--------------------------------------------------------------|

E|--------------------------------------------------------------|
B|--------------------------10--------12--10----12--10----------|
G|-11--12--12--11----11--12----12--11--------12--------12--12--11--9----|
D|----------------12--------------------------------------------|
A|--------------------------------------------------------------|
E|--------------------------------------------------------------|

E|--------------------------------------------------------------|
B|------------10------------------------------------------10---------|
G|-9--11--12------12--11------11--12--12--11------11--12------12--11-|
D|------------------------10~-----------------12---------------------|
A|--------------------------------------------------------------|
E|--------------------------------------------------------------|

E|-----------------------/15--14------15--14--15/17-------------|
B|-12--10-----12--10--------------12----------------------------|
G|---------12---------12----------------------------------------|
D|--------------------------------------------------------------|
A|--------------------------------------------------------------|
E|--------------------------------------------------------------|

E|--------------------------------------------------------------|
B|12p10--12p10--12p10--12--12b15r12--12p10--1210--12p10--12--12b15r12|
G|--------------------------------------------------------------|
D|--------------------------------------------------------------|
A|--------------------------------------------------------------|
E|--------------------------------------------------------------|

E|-12p10-------12p10-------12p10-------12p10-------12p10----------|
B|-------12p10-------12p10-------12p10-------12p10-------12p10/7~-|
G|----------------------------------------------------------------|
D|----------------------------------------------------------------|
A|----------------------------------------------------------------|
E|----------------------------------------------------------------|
Composición de António Manuel Lopes dos Santos
Colaboración y revisión:
  • Pedro Jose
  • Michelli Duarte
330 vistas
    • ½ Tono
    • A
    • Bb
    • B
    • C
    • Db
    • D
    • Eb
    • E
    • F
    • F#
    • G
    • Ab
  • Agregar a la lista

    0 comentarios

    Ver todos los comentarios

    ¿Lograste tocar?

    12 Tocaron 1 Aún no

    ¡Graba un video tocando Lisboa y envíanoslo!

    00:00 / 00:00
    Outros vídeos desta música
    Repetir Calidad Automático
    Outros vídeos desta música
    00:00 / 00:00
    Automático
    OK