Cifra Club

Pitiful

Taylor Hawkins & The Coattail Riders

Cifrado: Principal (guitarra y guitarra eléctrica)
tono: C
Coattail Riders - 

Intro
e|--1-1-1-1-1-1-1-1-1--|
B|--2-2-2-2-2-2-0-0h2--|
G|--2-2-2-2-2-2-2-2-2--|
D|--0-0-0-0-0-0-0-0-0--|
A|---------------------|
E|---------------------|

Verse
e|--1-1-1-1-1-1-1-1-1-1-1-1--0-0-0-0-0-0-0-0--3-3-3-3-3-3--|
B|--2-2-2-2-2-2-0-0h2-2-2-2--1-1-1-1-1-1-1-1--3-3-3-3-3-3--|
G|--2-2-2-2-2-2-2-2-2-2-2-2--0-0-0-0-0-0-0-0--0-0-0-0-0-0--|
D|--0-0-0-0-0-0-0-0-0-0-0-0--2-2-2-2-2-2-2-2--0-0-0-0-0-0--|
A|---------------------------3-3-3-3-3-3-3-3--2-2-2-2-2-2--|
E|--------------------------------------------3-3-3-3-3-3--|

Chorus
e|--1-1-1-1------------------|
B|--1-1-1-1---------3-3-3-3--|
G|--2-2-2-2-2-2-2-2-2-2-2-2--|
D|--3-3-3-3-2-2-2-2-0-0-0-0--|
A|--3-3-3-3-0-0-0-0----------|
E|--1-1-1-1------------------|


Solo
  Gtr. Rhythm
e|--1-1-1-1-1-1-1-1-1-1-1-1--0-0-0-0-0-0-0-0--3-3-3-3-3-3--|
B|--2-2-2-2-2-2-0-0h2-2-2-2--1-1-1-1-1-1-1-1--3-3-3-3-3-3--|
G|--2-2-2-2-2-2-2-2-2-2-2-2--0-0-0-0-0-0-0-0--0-0-0-0-0-0--|
D|--0-0-0-0-0-0-0-0-0-0-0-0--2-2-2-2-2-2-2-2--0-0-0-0-0-0--|
A|---------------------------3-3-3-3-3-3-3-3--2-2-2-2-2-2--|
E|--------------------------------------------3-3-3-3-3-3--|

  Gtr. Lead
e|---------3\5---3\5-3-1-1\3---1\3-1-0h1p0----|
B|--3-\5-6---------------------------------3--|
G|--------------------------------------------|
D|--------------------------------------------|
A|--------------------------------------------|
E|--------------------------------------------|

e|---------3\5---3\5-3-1-1\3---1\3-1-0h1p0-------------|
B|--3-\5-6---------------------------------3--1\3/1----|
G|--------------------------------------------------2--|
D|-----------------------------------------------------|
A|-----------------------------------------------------|
E|-----------------------------------------------------|

00:00 / 00:00
Otros videos de esta canción
Repetir
Otros videos de esta canción
Compositor no encontrado.
26 vistas
    • ½ Tono
    • A
    • Bb
    • B
    • C
    • Db
    • D
    • Eb
    • E
    • F
    • F#
    • G
    • Ab
  • Agregar a la lista

    0 comentarios

    Ver todos los comentarios

    ¿Lograste tocar?

    0 Tocaron 0 Aún no

    ¡Graba un video tocando Pitiful y envíanoslo!

    00:00 / 00:00
    OK