Cifra Club

Begin Again

Taylor Swift

Tablatura: Principal (guitarra)
Tom: G
Intro:

Parte 1 de 2
   G
E|---------------3--------------------------|
B|-------3---------------3-------3----------|
G|---0-------0---------------0--------------|
D|-----0-------0-------0-------0------------|
A|------------------------------------------|
E|-3-------3---------3-----3----------------|

Parte 2 de 2
   G
E|---------------3--------------------------|
B|-------3---------------3-------3----------|
G|-----------0---------------0--------------|
D|-----0-------0-------0-------0------------|
A|------------------------------------------|
E|-3-------3---------3-----3----------------|

Primeira Parte:
Parte 1 de 4
   G
E|---------------3--------------------------|
B|-------3---------------3-------3----------|
G|-----------0---------------0--------------|
D|-----0-------0-------0-------0------------|
A|------------------------------------------|
E|-3-------3---------3-----3----------------

Parte 2 de 4
   C9
E|---------------3---------------3----------|
B|-------3---------------3------------------|
G|-----------0---------------0--------------|
D|-----2-------2-------2-------2------------|
A|-3-------3---------3-----3----------------|
E|------------------------------------------|

Parte 3 de 4
   G/B
E|---------------3--------------------------|
B|-------3---------------3-------3----------|
G|-----------0---------------0--------------|
D|-----0-------0-------0-------0------------|
A|-2-------2---------2-----2----------------|
E|------------------------------------------|

Parte 4 de 4
   C9
E|---------------3---------------3----------|
B|-------3---------------3------------------|
G|-----------0---------------0--------------|
D|-----2-------2-------2-------2------------|
A|-3-------3---------3-----3-------3--------|
E|------------------------------------------|

G
  Took a deep breath in the mirror

He didn't like it when I wore high heels
    C9
But I do
G/B
    Turn the lock and 

Put my headphones on

He always said he didn't get this song
    C9
But I do
     G
I do

G
I walked in expecting you'd be late

But you got here early 

And you stand and wave
   C9
I walk to you
G/B
    You pull my chair out and help me in

And you don't now how nice that is
    C9
But I do

Refrão:
   G
E|---------------3--------------------------|
B|-------3-------3--------------------------|
G|---0-0-----0-0----------------------------|
D|-----0-------0----------------------------|
A|-2-------2--------------------------------|
E|-3-------3--------------------------------|

G
 You said you never met one girl who

Had as many James Taylor records as you
    C9
But I do
G/B
    We tell stories 

And you don't know why

I'm comin' off a little shy
    C9
But I do

Repete o Refrão:

C9
   But you throw your head back laughin' 
       D
Like a   little kid
Em7
   I think it's strange that you think I'm funny 'cause
G              G/B
  He never did
    C9
And I've been spending 

The last eight months
  D
Thinkin' all love ever does is
  G    D11/F#    Em7
Break, and burn, and end
 C9                          D
But on a Wednesday in a cafe
                         G
I watched it begin again

Segunda Parte:
Parte 1 de 5
   G
E|------------------------------------------|
B|-1h3----3-3----3-3----1---0---------------|
G|--------0-0----0-0----0---0--0-0----------|
D|-----0--0-0----0-0----0---0--0-0----------|
A|-x---x-------x------x---x----x-x----------|
E|-3---3-------3------3---3----3-3----------|

Parte 2 de 5
   G
E|-------------------0----------------------|
B|-1h3----3-3----3------3-1---0-------------|
G|--------0-0----0------0-0---0--0-0--------|
D|-----0--0-0----0------0-0---0--0-0--------|
A|-x---x-------x--------x-x------x-x--------|
E|-3---3-------3---3--------3----3-3--------|

Parte 3 de 5
   C
E|------------------------------------------|
B|-1h3----3-3----3-3----1---0---------------|
G|--------0-0----0-0----0---0--0-0----------|
D|-2---2--2-2--2-2-2--2-2-2-2--2-2----------|
A|-3---3-------3------3---3----3-3----------|
E|------------------------------------------|

Parte 4 de 5
   D
E|------------------------------------------|
B|-3-----3---3--3----3-----3----3-3-3-------|
G|-0h2---2---2--2h4--2p0---2----2-2-2-------|
D|-0---0---0----0----0---0---0--0-0-0-------|
A|------------------------------------------|
E|------------------------------------------|

Parte 5 de 5
   C9
E|------------------------------------------|
B|-3-----3---3--3-----3---3---3-------------|
G|-2h4---4---4--2h4---4---4---4--2p0--------|
D|-x---x---x----x---x---x---x--------2p0----|
A|-3---3---3----3---3---3---3---------------|
E|------------------------------------------|

( G  C  D )

        C9                        D
And we walked down the block to my car

And I almost brought him up
     C9                          D
But you start to talk about the movies
                         C9
That your family watches  
 
Every single Christmas
            G/B
And I want to talk about that
             C9
And for the first time

What's past is past

Refrão Final :
C9
  'Cause you throw your 

Head back laughin' 
       D
Like a   little kid
Em7
   I think it's strange that you think I'm funny 'cause
G
  He never did
    C9
And I've been spending the 

Last eight months
  D
Thinkin' all love ever does is
  G         D11#/F   Em7
Break, and burn, and end
 C9                          D
But on a Wednesday in a cafe
                         G  D11/F#  Em
I watched it begin again

C9                            D
   But on a Wednesday in a cafe

I watched it begin again
reproducciones 4.509
Acordes para:
    Composição: Taylor Swift Colaboración y revision:

    0 comentarios

    mostrar más comentarios

    ¿Conseguiste tocar?

    27 tocaron 1 aún no

    ¡Graba un vídeo tocando Begin Again y envianoslo!

    00:00 / 00:00
    outros vídeos desta música
    repetir qualidade Automático
    Outros vídeos desta música
    00:00 / 00:00
    Automático
    Capítulos
    • Tocando a música
    • Dicas Iniciais / Equipamentos
    • Acordes da Introdução e Primeira Parte
    • Tocando Introdução e Primeira Parte
    • Introdução - Parte 1 de 2
    • Introdução - Parte 2 de 2
    • Introdução - Parte 1 de 2 (dedilhado)
    • Introdução - Parte 1 de 2 (palheta)
    • Primeira Parte - Parte 1 de 4
    • Primeira Parte - Parte 2 de 4
    • Primeira Parte - Parte 3 de 4
    • Primeira Parte - Parte 4 de 4
    • Acordes do Refrão
    • Tocando o Refrão
    • Refrão
    • Acordes da Segunda Parte
    • Tocando a Segunda Parte
    • Segunda Parte - Parte 1 de 5
    • Segunda Parte - Parte 2 de 5
    • Segunda Parte - Parte 3 de 5
    • Segunda Parte - Parte 4 de 5
    • Segunda Parte - Parte 5 de 5
    • Encerramento
    • Ficha Técnica
    OK