Notificações Amigos pendentes

      Taylor Swift

      Safe And Sound

      14.440 reproducciones
      Tono: G (con acordes en la forma de C) Capo en 7ª casa
      Intro:
      
        Dm
      E|-------1p0-----|
      B|-------3-------|
      G|-----2---------|
      D|--0---------0--|
      A|---------------|
      E|---------------|
      
      
        Am
      E|----------|
      B|-------1--|
      G|-------2--|
      D|-----2----|
      A|--0-------|
      E|----------|
      
      
        F7+
      E|----------------|
      B|----------------|
      G|--0h2--2--2--0--|
      D|--3-------3-----|
      A|----------------|
      E|----------------|
      
      
        C
      E|-------------|
      B|-------------|
      G|----------0--|
      D|--0h2--2-----|
      A|--3----------|
      E|-------------|
      
      
        C/B
      E|-------------|
      B|----------1--|
      G|-------0-----|
      D|-------------|
      A|--0h2--------|
      E|-------------|
      
      
        Dm
      E|-------1p0-----|
      B|-------3-------|
      G|-----2---------|
      D|--0---------0--|
      A|---------------|
      E|---------------|
      
      
        Am
      E|----------|
      B|-------1--|
      G|-------2--|
      D|-----2----|
      A|--0-------|
      E|----------|
      
      
        C
      E|-----------------|
      B|--------1--------|
      G|--2-----------0--|
      D|--3--3-----3-----|
      A|-----------------|
      E|-----------------|
      
      
        C
      E|-----|
      B|--1--|
      G|-----|
      D|-----|
      A|--3--|
      E|-----|
      
      Verso:
      
      
      E|--0h1-------1p0-------|
      B|--3---------3---------|
      G|---------2---------0--|
      D|-------0---------0----|
      A|----------------------|
      E|----------------------|
      
      
      E|----------0-----|
      B|--0h1-----1-----|
      G|----------------|
      D|-------2-----2--|
      A|--0-------------|
      E|----------------|
      
      
        F7+
      E|----------------|
      B|----------------|
      G|--0h2--2--2--0--|
      D|--3-------3-----|
      A|----------------|
      E|----------------|
      
      
        C
      E|-------------|
      B|-------------|
      G|----------0--|
      D|--0h2--2-----|
      A|--3----------|
      E|-------------|
      
      
        C/B
      E|-------------|
      B|----------1--|
      G|-------0-----|
      D|-------------|
      A|--0h2--------|
      E|-------------|
      
      
        Dm
      E|-------1p0-----|
      B|-------3-------|
      G|-----2---------|
      D|--0---------0--|
      A|---------------|
      E|---------------|
      
      
        Am
      E|----------|
      B|-------1--|
      G|-------2--|
      D|-----2----|
      A|--0-------|
      E|----------|
      
      
        C
      E|-----------------|
      B|--------1--------|
      G|--2-----------0--|
      D|--3--3-----3-----|
      A|-----------------|
      E|-----------------|
      
      
      E|--------0--|
      B|--1-----1--|
      G|-----------|
      D|-----2-----|
      A|--3--------|
      E|-----------|
      
      
      Pré-Refrão:
      
      E|-----------------------------|
      B|--------0--------1-----3-----|
      G|-----0--0-----0--------------|
      D|-----------0-----2--1-----2--|
      A|-----------------------------|
      E|--3--------------------------|
      
      
      E|-----------0-----|
      B|-----1--3--------|
      G|--2-----------2--|
      D|-----------------|
      A|-----------------|
      E|-----------------|
      
      
      Refrão:
      
      E|----------------------0--------|
      B|--1-----1-------3--------------|
      G|--2-----2-----2-------------0--|
      D|-----3-----3-------------------|
      A|-------------------3-----0-----|
      E|-------------------------------|
      
      
      E|--------3p0-----|
      B|--1----------1--|
      G|----------------|
      D|-----2----------|
      A|--3-------------|
      E|----------------|
      
      
      E|-----0--------|
      B|--3-----3--1--|
      G|--------------|
      D|--------------|
      A|--------------|
      E|--3-----------|
      
      
      E|--------0-----|
      B|-----------1--|
      G|--------------|
      D|-----2--------|
      A|--0-----------|
      E|--------------|
      
      
      E|--------0-----|
      B|-----------1--|
      G|--------------|
      D|-----2--------|
      A|--------------|
      E|--3-----------|
      
      
      E|-----------0-----|
      B|-----1--3--------|
      G|--2-----------2--|
      D|-----------------|
      A|-----------------|
      E|-----------------|
      
      
      (Verso)
      
      Dm                          Am
      I remember tears streaming down your face
      F7+                             C
      When I said, I'll never let you go
      Dm                      Am                 F7+
      When all those shadows almost killed your light
      
      (Verse 2)
      
      Dm             Am     F7+                  C
      I remember you said, Don't leave me here alone
      
      (Pre-Chorus)
      
      Dm                       Am               F7+
      But all that's dead and gone and passed tonight
      
      F7+              C
      Just close your eyes
      G4                F7+
      The sun is going down
                    C
      You'll be alright
      G4                   F7+
      No one can hurt you now
                     C
      Come morning light
      G4               F7+      D
      You and I'll be safe and sound
      
      (Intro)
      
      Dm                 Am
      Don't you dare look out your window
      F7+                       C
      Darling everything's on fire
      Dm                   Am          F7+   C
      The war outside our door keeps raging on
      
      Dm      Am     F7+  C
      Hold on to this lullaby
      Dm           Am        F7+
      Even when the music's gone,gone...
      
      (Refrão)
      
      F7+              C
      Just close your eyes
      G4                F7+
      The sun is going down
                    C
      You'll be alright
      G4                  F7+
      No one can hurt you now
                     C
      Come morning light
      G4               F7+       D
      You and I'll be safe and sound
      
      Oooh, oooh, oooh, oooh.
      Oh, oh, oh, oh. (2x)
      
      F7+              C
      Just close your eyes
      F7+          C
      You'll be alright
      F7+            C
      Come morning light,
      G4               F7+       D
      You and I'll be safe and sound..
      
      huu,huu,huu...
      huu,huu,huu...

      Comentarios 53

      140 .
      • boris boris: Em 21/09/2016 - 22:41

        VIDEO AULA!

      • Cris Cris: Em 16/04/2016 09:16

        Videoaula urgente!!!

      • _k_a_d_u_ _k_a_d_u_: Em 29/10/2014 22:40

        video aula

      • Douglas Douglas: Em 16/10/2014 21:55

        viode aula por favor!! o dedilhado eh dificil de pegar pelo ouvido...

      • giovannaalmeida giovannaalmeida: Em 19/01/2014 19:35

        uma video aula faria bem

      • laiportela laiportela: Em 08/12/2013 15:49

        Video aula :(

      • Laís Laís: Em 28/11/2013 01:24

        Vídeo-aula please.. Quero aprender o dedilhado.. Obg

      • Lucas Lucas: Em 05/09/2013 08:26

        Achei Facil , Tem que Escutar a musica junto quando estiver Tocando , Tem algumas partes que precisa ser mais acelerado . Mais Video Aula se

      • Gabriela Gabriela: Em 12/03/2013 15:38

        glro, quem quiser aprender o dedilhado eu posso fazer uma video-aula pelo Skype explicando melhor (de acordo com a versão q disponibilizei).

        • Larissa Larissa: Em 26/08/2013 03:15

          ficaria grata se me ajudasse =)

      140 cancelar

      ¿conseguiste tocar?

      • •••
      0:00 / 0:00

      Capitulos

        1 versão de Guitar Proformatodownloadscontribuición
        play/pausefechar subir/bajar velocidad
        6ª cuerda E5ª cuerda A4ª cuerda D3ª cuerda G2ª cuerda B1ª cuerda E
          acordes
          publicidad
          cerrar
          ok