Cifra Club

Two Is Better Than One

Taylor Swift

Tablatura: Principal (guitarra)
Tom: C
(verse 1)
                C
E |-----------------------------|
B |-------1-----1-----1-----1---|
G |-----0-----0-----0-----0-----|   x2
D |---2-------------------------|
A |-3-------3-----3-----3-------|
E |-----------------------------|

I remember what you wore on the first day

                Am
E |-----------------------------|
B |-------1-----1-----1-----1---|
G |-----2-----2-----2-----2-----|
D |---2-------------------------|
A |-0-------0-----0-----0-------|
E |-----------------------------|
You came into my life and i thought hey

             F            G
E |-------------------------------|
B |-------1-----1-------1-----1---|
G |-----2-----2-------0-----0-----|
D |---3-------------0-------------|
A |-------------------------------|
E |-1-------1-----3-------3-------|
You know this could be something

                 C
E |-----------------------------|
B |-------1-----1-----1-----1---|
G |-----0-----0-----0-----0-----|
D |---2-------------------------|
A |-3-------3-----3-----3-------|
E |-----------------------------|

  C
Cause everything you do and words you say
  Am
You know that it all takes my breath away
 F         G                C
And i am left with nothing

(chorus)
              F
So maybe its true
              G
That i cant live without you
       F                  G
Maybe two is better than one
                 F
There's so much time
     G
To figure out the rest of my life
 Am                     G          F
And you've already got me coming undone
             Am       G          C
I'm thinking two is better than one

(verse 2)
 C                                Am
I remember every look upon your face

The way you roll your eyes
             F
The way you taste
              G                C
You make it hard for breathing
 C
Cause when i close my eyes and drift away
 Am
I think of you and everything's okay
 F           G             C
I'm finally now believing

(chorus)
                 F
Then maybe its true
              G
That i cant live without you
       F                  G
Maybe two is better than one
                 F
There's so much time
     G
To figure out the rest of my life
 Am                     G          F
And you've already got me coming undone
             Am       G          C
I'm thinking two is better than one

(bridge)  C Am F G

C                                         Am
I remember what you wore on the first day

You came into my life
                F
And i thought hey

(outro)
              F
And maybe it's true
              G
That i cant live without you
       F                  G
Maybe two is better than one
                 F
There's so much time
      G
To figure out the rest of my life
              Am        G           F
And you've already got me coming undone
          G            F
And i'm thinking oooooohhhh
      G
That i cant live without you
             F                  G
Cause maybe two is better than one
                     F
There's so much time
      G
To figure out the rest of my life
            Am
But i've figured out
      G                F
When all is said and done
 Am      G          C     Am
Two is better than one
 F       G          C
Two is better than one.
reproducciones 420
Acordes para:
    Colaboración y revision:
    • Lizandra

    0 comentarios

    mostrar más comentarios

    ¿Conseguiste tocar?

    16 tocaron 1 aún no

    ¡Graba un vídeo tocando Two Is Better Than One y envianoslo!

    00:00 / 00:00
    outros vídeos desta música
    repetir qualidade Automático
    Outros vídeos desta música
    00:00 / 00:00
    Automático
    OK