Cifra Club

Cê Tá Preparada (part. Marília Mendonça)

Tayrone

Cifrado: Principal (guitarra y guitarra eléctrica)
Selo Cifra Club: esta cifra foi revisada para atender aos critérios oficiais da nossa Equipe de Qualidade.
tono: D
[Intro] Em  G  D  A

[Tab - Solo Intro]

Parte 1 de 4 
                Em
E|------------------------------------------|
B|----------3h5-5--3-3-2-3-2-2/3--3---------|
G|--1/2-2-2---------------------------------|
D|------------------------------------------|
A|------------------------------------------|
E|------------------------------------------|
 
Parte 2 de 4 
                G
E|------------------------------------------|
B|----------3h5-5--3-3-2-3-2-2/3------------|
G|--1/2-2-2----------------------4----------|
D|------------------------------------------|
A|------------------------------------------|
E|------------------------------------------|
 
Parte 3 de 4 
             D             
E|------------------------------------------|
B|--------/8-8p7--------/8-8p7--------------|
G|--1/2-2---------1/2-2---------------------|
D|------------------------------------------|
A|------------------------------------------|
E|------------------------------------------|

Parte 4 de 4  
               A
E|-----------5------------------------------|
B|--/7-7-7-7---7p5-5-5-5/3-3h5--------------|
G|------------------------------------------|
D|------------------------------------------|
A|------------------------------------------|
E|------------------------------------------|

[Primeira Parte] 

                Em
Cê sabe onde tá 

Entrando se envolvendo comigo
             G
Cê sabe que vai tá o tempo todo correndo perigo
           D
Posso tá ali pegando fogo e te amando
             A
Se ela ligar 

Largo tudo e vou voando

[Pré-Refrão] 

                Em
Tô de corpo solteiro, sentimento amarrado
             G
Vivendo o futuro esperando

Um “volta pra mim” do passado
           D
Posso tá ali pegando fogo e te amando
             A
Se ela ligar 

Largo tudo e vou voando

              G
Não quero te ver chorar
                A
Por isso não espere o que eu não posso dar

[Refrão] 

            Em
Cê tá preparada pra enxugar meu choro
              G
Quando eu souber que ela dormiu com outro
     D
Me ajuda, faz bem feito
                 A
Tira aquele trenzão gostoso do meu peito

            Em
Cê tá preparada pra enxugar meu choro
              G
Quando eu souber que ela dormiu com outro
     D
Me ajuda, faz bem feito
                 A
Tira aquele trenzão gostoso do meu peito

      G                      A
Me segura na cama porque no coração
         Bm   A
Não tem jeito

[Solo] Em  G  D  A

Parte 1 de 4 
                Em
E|------------------------------------------|
B|----------3h5-5--3-3-2-3-2-2/3--3---------|
G|--1/2-2-2---------------------------------|
D|------------------------------------------|
A|------------------------------------------|
E|------------------------------------------|
 
Parte 2 de 4 
                G
E|------------------------------------------|
B|----------3h5-5--3-3-2-3-2-2/3------------|
G|--1/2-2-2-----------------------4---------|
D|------------------------------------------|
A|------------------------------------------|
E|------------------------------------------|
 
Parte 3 de 4 
             D             
E|------------------------------------------|
B|--------/8-8p7--------/8-8p7--------------|
G|--1/2-2---------1/2-2---------------------|
D|------------------------------------------|
A|------------------------------------------|
E|------------------------------------------|

Parte 4 de 4  
               A
E|-----------5------------------------------|
B|--/7-7-7-7---7p5-5-5-5/3-3h5--------------|
G|------------------------------------------|
D|------------------------------------------|
A|------------------------------------------|
E|------------------------------------------|

[Primeira Parte] 

                Em
Cê sabe onde tá 

Entrando se envolvendo comigo
             G
Cê sabe que vai tá o tempo todo correndo perigo
           D
Posso tá ali pegando fogo e te amando
             A
Se ele ligar 

Largo tudo e vou voando

[Pré-Refrão] 

                Em
Tô de corpo solteiro, sentimento amarrado
             G
Vivendo o futuro esperando

Um “volta pra mim” do passado
           D
Posso tá ali pegando fogo e te amando
             A
Se ele ligar 

Largo tudo e vou voando

              G
Não quero te ver chorar
                A
Por isso não espere o que eu não posso dar

[Refrão] 

            Em
Cê tá preparado pra enxugar meu choro
              G
Quando eu souber que ele dormiu com outra
     D
Me ajuda, faz bem feito
                 A
Tira aquele trenzão gostoso do meu peito

            Em
Cê tá preparado pra enxugar meu choro
              G
Quando eu souber que ele dormiu com outra
     D
Me ajuda, faz bem feito
                 A
Tira aquele trenzão gostoso do meu peito

      G                      A
Me segura na cama porque no coração
         Bm   
Não tem jeito

[Solo Final] A

             A
E|--7/10--10-10-9--9--9--9---7--5-7---------|
B|--8/12--12-12-10-10-10-10--8--7-8---------|
G|------------------------------------------|
D|------------------------------------------|
A|------------------------------------------|
E|------------------------------------------|

[Final] 

      G                      A
Me segura na cama porque no coração
              D
Não tem jeito
Otros videos de esta canción
    814 exhibiciones
    • Simplificar cifrado
      • ½ Tono
      • A
      • Bb
      • B
      • C
      • Db
      • D
      • Eb
      • E
      • F
      • F#
      • G
      • Ab
    • Agregar a la lista

    Afinação da cifra

    Afinador online

      Ops (: Contenido disponible solo en portugués.
      OK