Cifra Club

Back In Your Head

Tegan And Sara

Cifrado: Principal (guitarra y guitarra eléctrica)
Selo Cifra Club: esta cifra foi revisada para atender aos critérios oficiais da nossa Equipe de Qualidade.
tono: C
Album: The Con (july 24, 2007)
Tuning EBGDAE
by *


Intro Melody* 4x (Guitar 1)

E-----------------------------------------|
B-10-10-----------------------------------|
G-------12-12-----------------------------|
D-------------9--9--10-10-----------------|
A-----------------------------------------|
E-----------------------------------------|

Rhythm (Guitar 2)

E-----------------------------------------|
B-----------------------------------------|
G-5--5--5--5--------2--2------------------|
D-3--3--5--5--2--2--3--3------------------|
A-------3--3--3--3--3--3------------------|
E-------------1--1--1--1------------------|


Verse 1

Guitar 2

  D (007750)   F (002331)

E--------------------------------------------|
B--------------------------------------------|
G-7x77x77x77x-2x22x22x22x--------------------|
D-7x77x77x77x-3x33x33x33x--------------------|
A-5x55x55x55x-3x33x33x33x--------------------|
E-------------1x11x11x11x--------------------|

D                                        F
Build a wall of books between us in our bed
  D                                           F
Repeat, repeat the words that I know we both said
  D                                   F
Relax into the need, we get so comfortable
  D                                    F
Remember when I was so strange and likeable


Chorus

E-----------------------------------------|
B-----------------------------------------|
G-5--5--5--5--------2--2------------------|
D-3--3--5--5--2--2--3--3------------------|
A-------3--3--3--3--3--3------------------|
E-------------1--1--1--1------------------| 6x

I just want back in your head *
I just want back in your head *
I'm not unfaithful but I'll stray *

Guitar 2  F (002331)   C (005530)
Guitar 1  F (xxx7xx)   C (xx5xxx)

FF CC FF CC
        When I get a little scared
FF CC FF CC
        When I get a little scared
FF CC FF CC               FF CC FF CC
        When I get a little


Verse 2

Guitar 2

D                                         F
When I jerk away from holding hands with you
D                                            F
I know these habits hurt important parts of you
D                                       F
Remember when I was sweet and unexplainable
D                               F
Nothing like this person, unlovable


Chorus

E-----------------------------------------|
B-----------------------------------------|
G-5--5--5--5--------2--2------------------|
D-3--3--5--5--2--2--3--3------------------|
A-------3--3--3--3--3--3------------------|
E-------------1--1--1--1------------------| 6x

I just want back in your head *
I just want back in your head *
I'm not unfaithful but I'll stray *

FF CC FF CC
        When I get a little scared
FF CC FF CC
        When I get a little scared
FF CC FF CC
        When I get a little scared
FF CC FF CC
        When I get a little
FF CC FF CC       FF CC FF CC
Run, run, run... run
FF CC FF CC       FF CC FF CC
Run, run, run... run


Chorus

E-----------------------------------------|
B-----------------------------------------|
G-5--5--5--5--------2--2------------------|
D-3--3--5--5--2--2--3--3------------------|
A-------3--3--3--3--3--3------------------|
E-------------1--1--1--1------------------| 10x

I just want back in your head *
I just want back in your head *
I'm not unfaithful but I'll stray *
* I'm not unfaithful but I'll stray
* I'm not unfaithful but I'll stray
* I'm not unfaithful but I'll stray
* I'm not unfaithful but I'll stray (end on F)
Otros videos de esta canción
    6.234 exhibiciones
      • ½ Tono
      • A
      • Bb
      • B
      • C
      • Db
      • D
      • Eb
      • E
      • F
      • F#
      • G
      • Ab
    • Agregar a la lista

    Afinación de cifrado

    Afinador online

      OK