Cifra Club

Call It Off

Tegan And Sara

Cifrado: Principal (guitarra y guitarra eléctrica)
Selo Cifra Club: esta cifra foi revisada para atender aos critérios oficiais da nossa Equipe de Qualidade.
tono: Eb (forma dos acordes no tom de C) Capotraste na 3ª casa
Capo 3rd fret

INTRO:
e|----------------------------------|
B|----1---1---1---1---1---1---1---1-|
G|----0---0---0---0---2---2---2---2-|
D|----------------------------------|
A|--3---3---3---3---0---0---0---0---|
E|----------------------------------|



VERSE:
(I won't regret saying this...)
e|----------------------------------|
B|----1---1---1---1---1---1---1---1-|
G|----0---0---0---0---2---2---2---2-|
D|----------------------------------|
A|--3---3---3---3---0---0---0---0---|
E|----------------------------------|



PRE-CHORUS:
(Call, break it off...)
e|----------------------------------|
B|----0---0---0---0---1---1---1---1-|
G|----0---0---0---0---0---0---0---0-|
D|----------------------------------|
A|------------------3---3---3---3---|
E|--3---3---3---3-------------------|

e|----------------------------------|
B|----1---1---1---1---1---1---1---1-|
G|----0---0---0---0---2---2---2---2-|
D|----------------------------------|
A|--2---2---2---2---0---0---0---0---|
E|----------------------------------|



CHORUS (pt. 1)
(Maybe I would've been something...)
e|----------------------------------|
B|----1---1---1---1---1---1---1---1-|
G|----2---2---2---2---0---0---0---0-|
D|--3---3---3---3-------------------|
A|------------------3---3---3---3---|
E|----------------------------------|

e|----------------------------------|
B|----0---0---0---0---0---0---0---0-|
G|----0---0---0---0---0---0---0---0-|
D|----------------------------------|
A|----------------------------------|
E|--3---3---3---3---3---3---3---3---|



CHORUS (pt. 2)
(But now, we'll never know...)
e|----------------------------------|
B|----1---1---1---1---0---0---0---0-|
G|----2---2---2---2---0---0---0---0-|
D|--3---3---3---3-------------------|
A|----------------------------------|
E|------------------3---3---3---3---|

e|----------------------------------|
B|----1---1---1---1---1---1---1---1-|
G|----0---0---0---0---2---2---2---2-|
D|----------------------------------|
A|--3---3---3---3---0---0---0---0---|
E|----------------------------------|



ORDER OF PARTS:
-Intro (x2)
-Verse (x4)
-Pre-Chorus (x2)
-Chorus pt. 1 (x2)
-Chorus pt. 2 (x2)
-Verse (x4)
-Pre-Chorus (x2)
-Chorus pt. 1 (x2)
-Chorus pt. 2 (x2)
Otros videos de esta canción
    340 exhibiciones
      • ½ Tono
      • A
      • Bb
      • B
      • C
      • Db
      • D
      • Eb
      • E
      • F
      • F#
      • G
      • Ab
    • Agregar a la lista

    Afinação da cifra

    Afinador online

      Ops (: Contenido disponible solo en portugués.
      OK