Cifra Club

Love Type Thing

Tegan And Sara

Cifrado: Principal (guitarra y guitarra eléctrica)
Selo Cifra Club: esta cifra foi revisada para atender aos critérios oficiais da nossa Equipe de Qualidade.
tono: Bb
on "The L Word" soundtrack. Enjoy,


***GUITAR 1***
e|--------------------|
b|--------------------|
g|-10-----------------|l
d|-10-x8--10----------|l
a|--8-----10-x8-------|
e|---------8----------|
*play through all verses and intro*

e|-----------------------------|
b|-----------------------------|
g|----------------10-----------|l
d|--8------10------10-x8-------|l
a|--8-x4---10-x4---8-----------|
e|--6------8-------------------|
"a love type thing, a sure type thing....oh its a..."

***GUITAR 2***
e|-------------------------------------------------------------------------------------|
b|-10-10-10-10-10-10-8-8-5-5-5-5-5-5-6-8-9-10-10-10-10-10-10-13-11-8-8-8-8-8-8-8-6-9---|
g|-------------------------------------------------------------------------------------|l
d|-------------------------------------------------------------------------------------|l
a|-------------------------------------------------------------------------------------|
e|-------------------------------------------------------------------------------------|
*this is played through the verses and intro, listen to real song*
Otros videos de esta canción
    21 exhibiciones
      • ½ Tono
      • A
      • Bb
      • B
      • C
      • Db
      • D
      • Eb
      • E
      • F
      • F#
      • G
      • Ab
    • Agregar a la lista

    Afinação da cifra

    Afinador online

      Ops (: Contenido disponible solo en portugués.
      OK