Cifra Club

My Number

Tegan And Sara

Cifrado: Versão 4 (guitarra y guitarra eléctrica)
Selo Cifra Club: esta cifra foi revisada para atender aos critérios oficiais da nossa Equipe de Qualidade.
tono: D
E|--------------------------------------------------|
B|----------| tegan and sara - "my number" ----------
G|--------------------------------------------------|

i've noticed that there's only one other tab 
for this song, and the other one wasn't completely 
correct, so i thought i'd tab it out the way i 
saw them play it live. i'm almost 100% certain 
that these tabs are completely correct. enjoy!

capo 7th

intro (palm-muted):
e|-x-|-x-|-x-|-x-|
B|-x-|-x-|-0-|-0-|
G|-0-|-0-|-0-|-0-| play x4
D|-0-|-0-|-0-|-0-|
A|-7-|-x-|-2-|-2-|
E|-0-|-2-|-3-|-3-|


verse 1 (palm-muted):
(showers pounding out...)
e|-x-|-x-|-x-|-x-|
B|-x-|-x-|-0-|-0-|
G|-0-|-0-|-0-|-0-| play x8
D|-0-|-0-|-0-|-0-|
A|-7-|-x-|-2-|-2-|
E|-0-|-2-|-3-|-3-|


pre-chorus (palm-muted):
(watch your head...)
e|-x-|-x-|-x-|-x-|
B|-x-|-x-|-0-|-0-|
G|-0-|-0-|-0-|-0-| play x4
D|-0-|-0-|-0-|-0-|
A|-7-|-x-|-2-|-2-|
E|-0-|-2-|-3-|-3-|


chorus:
(if i gave you my number...)
                     x2
e|-0-|-x-|-x-|-x-|-x-||-x-|-x-|-x-|
B|-1-|-0-|-0-|-0-|-0-||-0-|-0-|-0-|
G|-0-|-0-|-0-|-0-|-0-||-0-|-0-|-0-|
D|-2-|-0-|-0-|-0-|-0-||-0-|-0-|-0-|
A|-3-|-2-|-7-|-x-|-2-||-7-|-x-|-2-|
E|---|-3-|-0-|-2-|-3-| |-0-|-2-|-3-|


[intro]


verse 2 (palm-muted):
(closed down the last...)
e|-x-|-x-|-x-|-x-|
B|-x-|-x-|-0-|-0-|
G|-0-|-0-|-0-|-0-| play x8
D|-0-|-0-|-0-|-0-|
A|-7-|-x-|-2-|-2-|
E|-0-|-2-|-3-|-3-|
Otros videos de esta canción
    1 exhibiciones
      • ½ Tono
      • A
      • Bb
      • B
      • C
      • Db
      • D
      • Eb
      • E
      • F
      • F#
      • G
      • Ab
    • Agregar a la lista

    Afinação da cifra

    Afinador online

      Ops (: Contenido disponible solo en portugués.
      OK