Cifra Club

Soil Soil

Tegan And Sara

Cifrado: Principal (guitarra y guitarra eléctrica)
Selo Cifra Club: esta cifra foi revisada para atender aos critérios oficiais da nossa Equipe de Qualidade.
tono: D (forma dos acordes no tom de C) Capotraste na 2ª casa
Tuning: Drop D
Capo 2nd fret

VERSE:
(Oh, and I'm feeling directionless...)
e|------0-----0-----0-----0-----0-----0-----0-----0-|
B|------1-----1-----1-----1-----1-----1-----1-----1-|
G|----0-----0-----0-----0-----2-----2-----2-----2---|
D|--------------------------------------------------|
A|--3-----3-----3-----3-----0-----0-----0-----0-----|
E|--------------------------------------------------|

PRE-CHORUS:
(All you need to save me...)
e|------0-----0-----0-----0-----0-----0-----0-----0-|
B|------1-----1-----1-----1-----1-----1-----1-----1-|
G|----0-----0-----0-----0-----2-----2-----2-----2---|
D|--------------------------------------------------|
A|--3-----3-----3-----3-----0-----0-----0-----0-----|
E|--------------------------------------------------|

CHORUS:
(Call, and I'll be curled on the floor...)
e|--------------------------------------------------|
B|------1-----1-----1-----1-----5-----5-----3-----3-|
G|------0-----0-----0-----0-----0-----0-----0-----0-|
D|--------------------------------------------------|
A|----3-----3-----3-----3-----7-----7-----5-----5---|
E|--3-----3-----3-----3-----7-----7-----5-----5-----|

ORDER OF PARTS:
-Verse (x2)
-Pre-Chorus (x2)
-Chorus (x2)
-Verse (x2)
-Pre-Chorus (x2)
-Chorus (x2)
Otros videos de esta canción
    44 exhibiciones
      • ½ Tono
      • A
      • Bb
      • B
      • C
      • Db
      • D
      • Eb
      • E
      • F
      • F#
      • G
      • Ab
    • Agregar a la lista

    Afinação da cifra

    Afinador online

      Ops (: Contenido disponible solo en portugués.
      OK