Cifra Club

This Is Everything

Tegan And Sara

Cifrado: Principal (guitarra y guitarra eléctrica)
Selo Cifra Club: esta cifra foi revisada para atender aos critérios oficiais da nossa Equipe de Qualidade.
tono: B
IT'S THE TABS FOR THE LIVE VERSION

e------------------|
B------------------|
G-9----------------|
D-9--9--11---------|
A-7--9--11---------|
E----7--9----------|


e----------------14-11-12----|
B---(12)-14-12---------------|
G--------------13------------|
D----------------------------|
A----------------------------|
E----------------------------|
Otros videos de esta canción
    27 exhibiciones
      • ½ Tono
      • A
      • Bb
      • B
      • C
      • Db
      • D
      • Eb
      • E
      • F
      • F#
      • G
      • Ab
    • Agregar a la lista

    Afinação da cifra

    Afinador online

      Ops (: Contenido disponible solo en portugués.
      OK