Cifra Club

Wake Up Exhausted

Tegan And Sara

Cifrado: Principal (guitarra y guitarra eléctrica)
Selo Cifra Club: esta cifra foi revisada para atender aos critérios oficiais da nossa Equipe de Qualidade.
tono: G
CHORDS:
     G  G/F# C5  D5
E|---3---0---3---0---|
B|---3---3---3---3---|
G –--0---2---0---2---|
D|---0---0---2---0---|
A|---2---0---3-------|
E|---3---2-----------|

VERSE 1:
                   G                       G/F#
I wake up exhausted it's not morning

      C5                   D5
It's back to sleep to re-dream me

            G                    G/F#
We're alone and we're happy

       C5                  D5
But there you are, angry with me


CHORUS:
         C5
Are you alright?

       G
I can stand up straight

        C5
Are you alright?

         G
Can you get me off your mind?


G   G/F#   C5   D5

RIFF:   (^ = slide)
E|------------------------------------------------------|
B|------------------------------------------------------|
G|------------------------------------------------------|
D|------------------------------------------------------| x2
A|--------5-^-2--------5-^-2---------5-^-2--------5-^-2-|
E|---2--3---------2--3---------2--3----------2--3-------|


VERSE 2: (Same as Verse 1)
              G              G/F#
I hated this city before you came here

   C5            D5
So let go and move on

We're strangers, we're not friends
I hate this and I hate them
This city's exhausted and it's wound up
Soon to be a place that's just filled up
And I found out that you're angry
And you're sorry you ever met me


CHORUS


VERSE 1

CHORUS

Can you get me off your mind?
Can you get me off your mind?
Can you get me off your mind?
Can you get me off your mind?
Otros videos de esta canción
    31 exhibiciones
      • ½ Tono
      • A
      • Bb
      • B
      • C
      • Db
      • D
      • Eb
      • E
      • F
      • F#
      • G
      • Ab
    • Agregar a la lista

    Afinación de cifrado

    Afinador online

      OK