Cifra Club

Want To Be Bad

Tegan And Sara

Cifrado: Principal (guitarra y guitarra eléctrica)
Selo Cifra Club: esta cifra foi revisada para atender aos critérios oficiais da nossa Equipe de Qualidade.
tono: C
INTRO
(Strum the open strings at the same time)

E|------------------------------------------------|
B|------------------------------------------------|
G|------------------------------------------------|
D|--12--10--12--10--9-10---12--10--12--10--9-10---|
A|------------------------------------------------|
E|------------------------------------------------|

E|-------------------------------------------------------------------|
B|-------------------------------------------------------------------|
G|-------------------------------------------------------------------|
D|--7--9--7--9--7--9--10-9-10-9-10---7--9--7--9--7--9--10-9-10-9-10--|
A|-------------------------------------------------------------------|
E|-------------------------------------------------------------------|


VERSE1 (Same as INTRO)

       “You Crowbar swung through the, the restaurant...”
E|------------------------------------------------|
B|------------------------------------------------|
G|------------------------------------------------|
D|--12--10--12--10--9-10---12--10--12--10--9-10---|
A|------------------------------------------------|
E|------------------------------------------------|

E|-------------------------------------------------------------------|
B|-------------------------------------------------------------------|
G|-------------------------------------------------------------------|
D|--7--9--7--9--7--9--10-9-10-9-10---7--9--7--9--7--9--10-9-10-9-10--|
A|-------------------------------------------------------------------|
E|-------------------------------------------------------------------|


CHORUS
“Don’t get in, over your head”  “I just want to be bad”
     C                     G                         Em
E|---0---------------------0-------------------------0------------|
B|---3---------------------3-------------------------0------------|
G|---0---------------------0-------------------------0------------|
D|---2---------------------0-------------------------2------------|
A|---0---------------------0-------------------------0------------|
E|---x---------------------3-------------------------0------------|

(Softer stumming)
“Oh oh, alright”  “You’re so tragedy...”
            C                  G
E|----------0------------------0-------------------|
B|----------3------------------3-------------------|
G|----------0------------------0-------------------|
D|----------2------------------0-------------------|
A|----------0------------------0-------------------|
E|----------x------------------3-------------------|


VERSE 2

CHORUS


“Then morning came, we’re in this together” (x2)
        C                           G
E|------0---------------------------0--------------|
B|------3---------------------------3--------------|
G|------0---------------------------0--------------|
D|------2---------------------------0--------------|
A|------0---------------------------0--------------|
E|------x---------------------------3--------------|

“I don’t care how far we go... what’s the matter”
                  Em                        G
E|----------------0-------------------------0------|
B|----------------0-------------------------3------|
G|----------------0-------------------------0------|
D|----------------2-------------------------0------|
A|----------------0-------------------------0------|
E|----------------0-------------------------3------|
Otros videos de esta canción
    3 exhibiciones
      • ½ Tono
      • A
      • Bb
      • B
      • C
      • Db
      • D
      • Eb
      • E
      • F
      • F#
      • G
      • Ab
    • Agregar a la lista

    Afinação da cifra

    Afinador online

      Ops (: Contenido disponible solo en portugués.
      OK