Cifra Club

007

Temas de Filmes

Tablatura: Principal (guitarra)
Tom: G
E|---------------------|---------------------|--------------------------|
B|---------------------|---------------------|--------------------------|
G|*--------------------|--------------------*|*-4---5---6---5---4---5---|
D|*--------------------|--------------------*|*-------------------------|
A|---7---7-----7---7---|--7--7-----7-7-7-----|--------------------------|
E|---------------------|---------------------|--------------------------|

---------------------|---------------------|--------------------------|
---------------------|---------------------|--------------------------|
*6---5---4---5---6---|5---4---6----5------*|*-------------------------|
*--------------------|--------------------*|*-------------------------|
---------------------|---------------------|--------------------------|
---------------------|---------------------|--------------------------|
            
---------------------|---------------------|--------------------------|
---------------------|---------------------|--------------------------|
*--------------------|--------------------*|*-------------------------|
*--------------------|--------------------*|*-------------------------|
---2--------3--------|--4--------3---------|--------------------------|
---------------------|---------------------|--0---2-2-2-----0---0-0-0-|

-------------------------|-------------------------|-------------------------|
-------------------------|-------------------------|-------------------------|
-------------------------|-------------------------|-------------------------|
-------------------------|-------------------------|-------------------------|
-------------------------|-------------------------|-------------------------|
-3---3-3-3-----2---2-2-2-|-0---2-2-2-----0---0-0-0-|-3---3-3-3-----2---2-2-2-|

-------------------------|-------------------------|----------------------|
-------------------------|-------------------------|----------------------|
-------------------------|-------------------------|----------------------|
-------------------------|-------------------------|--1--0----------------|
-------------------------|-------------------------|----------------2--0--|
-0---2-2-2-----0---0-0-0-|--3---3-3--3----2--1--0--|----------------------|

--------------------|---------------------|---------------------|
--------------------|---------------------|---------------------|
-------------------*|*--------------------|--------------------*|
-------------------*|*--------------------|--------------------*|
--2-----------------|---2--------3--------|--4--------3---------|
--------------------|---------------------|---------------------|

------------------------|--------------------|-----------------------|
------------------------|--------------------|-----------------------|
*----------4--3---------|--------------------|-----------------------|
*--2--5--------------5--|--4--5--------------|--5----4---------2-----|
------------------------|--------------------|--------------2-----4--|
------------------------|--------------------|-----------------------|

------------------|-----------------------|--------------------|
------------------|-----------------------|--------------------|
------------------|----------4--3---------|--------------------|
------------------|--2--5--------------5--|--4--5--------------|
------------------|-----------------------|--------------------|
------------------|-----------------------|--------------------|

-----------------------|-------------------|-------------------------|
-----------------------|-------------------|-------------------------|
-----------------------|------------------*|*------------------------|
--5----4---------1--2--|------------------*|*--2--2----2--4--2--4----|
--------------2--------|-------------------|-------------------------|
-----------------------|-------------------|-------------------------|

-------------------------|-----------------------|-------------------|
-------------------------|-----------------------|-------------------|
------------------------*|--9-9----------9-9-----|-------------------|
--5--5----5--4--2--4----*|--9-9-----9----9-9-----|--9----------------|
-------------------------|--7-7-----9----7-7-----|--9----------------|
-------------------------|----------7------------|--7----------------|

--------------------|--------------------|-------------------------|
--------------------|--------------------|-------------------------|
--------------------|--------------------|-------------------------|
--------------------|--------------------|-------------------------|
--2--------3--------|--4--------3--------|-------------------------|
--------------------|--------------------|-0---2-2-2-----0---0-0-0-|

-------------------------|-------------------------|-------------------------|
-------------------------|-------------------------|-------------------------|
-------------------------|-------------------------|-------------------------|
-------------------------|-------------------------|-------------------------|
-------------------------|-------------------------|-------------------------|
-3---3-3-3-----2---2-2-2-|-0---2-2-2-----0---0-0-0-|-3---3-3-3-----2---2-2-2-|

-------------------------|-------------------------|----------------------|
-------------------------|-------------------------|----------------------|
-------------------------|-------------------------|----------------------|
-------------------------|-------------------------|--1--0----------------|
-------------------------|-------------------------|----------------2--0--|
-0---2-2-2-----0---0-0-0-|--3---3-3--3----2--1--0--|----------------------|

-------------------|------------------------|-----------------------|
-------------------|------------------------|-----------------------|
-------------------|------------------------|--------------------3--|
-------------------|------------------------|----4--3-------0-------|
--2----------------|----------1--0-------2--|------------3----------|
-------------------|--0--3------------3-----|-----------------------|

-----------------------|--2----------------|
---------------4--3----|--2----------------|
--2-------2------------|-------------------|
-------3---------------|--1----------------|
-----------------------|--2----------------|
-----------------------|-------------------|
reproducciones 230
Acordes para:
    Colaboración y revision:
    • Axel Barbosa
    • wladimir santos

    0 comentarios

    mostrar más comentarios

    ¿Conseguiste tocar?

    2 tocaron 1 aún no

    ¡Graba un vídeo tocando 007 y envianoslo!

    00:00 / 00:00
    outros vídeos desta música
    repetir qualidade Automático
    Outros vídeos desta música
    00:00 / 00:00
    Automático
    OK