Cifra Club

Harry Potter Theme

Temas de Filmes

Tablatura: Principal (guitarra)
Tom: A
E|--0--3-2-0--7-5--2--0--3-2---1-----|
B|0--------------------------3---0---|
G|-----------------------------------|
D|-----------------------------------|
A|-----------------------------------|
E|-----------------------------------|

E|--0--3-2-0--7-10--9-8--5-8--7-6----|
B|0-------------------------------0--|
G|-----------------------------------|
D|-----------------------------------|
A|-----------------------------------|
E|-----------------------------------|

E|3-0--3-7--3-7--3-8--7-6--2-3--7-6--|
B|----------------------------------0|
G|-----------------------------------|
D|-----------------------------------|
A|-----------------------------------|
E|-----------------------------------|

E|--7--3-7--3-7--3-10--9-8--5-8--7-6-|
B|0----------------------------------|
G|-----------------------------------|
D|-----------------------------------|
A|-----------------------------------|
E|-----------------------------------|

E|2--3-0----0--3-2-0--7-10--9-8--5-8-|
B|--------0--------------------------|
G|-----------------------------------|
D|-----------------------------------|
A|-----------------------------------|
E|-----------------------------------|

E|7-6-----3-0--0---------------------|
B|-----0-----------------------------|
G|-----------------------------------|
D|-----------------------------------|
A|-----------------------------------|
E|-----------------------------------|

reproducciones 213
Acordes para:

    0 comentarios

    mostrar más comentarios

    ¿Conseguiste tocar?

    77 tocaron 3 aún no

    ¡Graba un vídeo tocando Harry Potter Theme y envianoslo!

    00:00 / 00:00
    outros vídeos desta música
    repetir qualidade Automático
    Outros vídeos desta música
    00:00 / 00:00
    Automático
    OK